>
 >
Leech

Leech Guitar Tabs

Sevendust - Leech chords, tabs, tablatures, lyrics

Guitar lessons | Add/correct | Request | Top 50 tabs Artists:  A B C D E F G H I J K L M N O P Q R S T U V W X Y Z 0-9

Leech Guitar Tabs – Sevendust

CD, Sheet music, Poster

Do you like Leech? Share with your friends now
Tabs

Tuning: (low to high) A# F# B E G# C#



Intro
C#|------------------5-------------------------------------------------------------------|
G#|------9-------9-------9-------7p0------7--------7-------5------5------5---5\3-----5---|
E |--------------------------------------------------------------------------------------|
B |-11-------9---------------9--------9-----9-\7-------7------7------7-----------5-------|
F#|--------------------------------------------------------------------------------------|
A#|--------------------------------------------------------------------------------------|

C#|------------------5---------------------------------------------------------0---------|
G#|------9-------9-------9-------7p0-------7--9-10---12---10----9----9-----0-------0-----|
E |--------------------------------------------------------------------------------------|
B |-11-------9---------------9--------9------11-11-------------11---11-9-----------------|
F#|--------------------------------------------------------------------------------------|
A#|--------------------------------------------------------------------------------------|


Main riff
C#|-----------------------------------------------------------------|
G#|-----------------------------------------------------------------|
E |-----------------------------------------------------------------|
B |-----------------------------------------------------------------| 2x
F#|-----------------------------------------------------------------|
A#|-0-----0-------------0-0---0---0-0-----0-------------0-0---0---0-|

C#|--------------------------------------------------------------------|
G#|--------------------------------------------------------------------|
E |-10/12-------------12-12---12------9/10--------------10-10---10-----|
B |--------------------------------------------------------------------| 2x
F#|--8/10-------------10-10---10------7/-8---------------8--8----8-----|
A#|---------0----------------------0----------0----------------------0-|


Verse
C#|--------------------------------------------------------------------|
G#|--------------------------------------------------------------------|
E |-10/12-------------12-12---12------9/10--------------10-10---10-----|
B |--------------------------------------------------------------------| 4x
F#|--8/10-------------10-10---10------7/-8---------------8--8----8-----|
A#|---------0----------------------0----------0----------------------0-|

C#|--------------------------------------------------------------------------------|
G#|--------------------------------------------------------------------------------|
E |-10/12--------------------12-12---12-----9/10--------------------10-10---10-----|
B |--------------------------------------------------------------------------------|
F#|--8/10-------------8-10---10-10---10-----7/-8-------------8-10----8--8----8-----|
A#|---------0---10h12---------------------0--------0---10h12---------------------0-|

C#|--------------------------------------------------------------------------------|
G#|--------------------------------------------------------------------------------|
E |-10/12--------------------12-12---12-----9/10--------------------10-10---10-----|
B |--------------------------------------------------------------------------------|
F#|--8/10-------------8-10---10-10---10-----7/-8-------------8-10----8--8----8-----|
A#|---------0---10h12---------------------0--------0---10h12---------------------0-|


Pre-Chorus
C#|-------0-----------------------0-----------------0-----------------|
G#|-------------------0-----------------------0-----------0-----0-----|
E |-------------------------------------------------------------------|
B |-------------------------------------------------------------------|
F#|-------------------------------------------------------------------|
A#|-0-----------2-----------3-----------5-----------------------------|

C#|-------0-----------------------0-----------------0-----------------|
G#|-------------------0-----------------------0-----------0-----0-----|
E |-------------------------------------------------------------------|
B |-------------------------------------------------------------------|
F#|-------------------------------------------------------------------|
A#|-0-----------2-----------3----------/8-----------------------------|


Chorus 2x
C#|--------------------------------------------------------------------------------------|
G#|--------------------------------------------------------------------------------------|
E |--------------------------------------------------------------------------------------|
B |--------------------------------------------------------------------------------------|
F#|--------------------------------------------------------------------------------------|
A#|-0-0-0-0-0-0-2-2-2-2-2-2-/10-10-10-10-10-10-10-10-10-10-10-10-10-10-10-10-10-10-10-10-|


C#|------------------------------------------------------------------|
G#|------------------------------------------------------------------|
E |------------------------------------------------------------------|
B |------------------------------------------------------------------|
F#|------------------------------------------------------------------|
A#|-5-5-5-5-5-5-8-8-8-8-8-8-8-8-8-8-8-8-8-8-8-8-8-8-8-\6-6-6-6-6-6-6-|


Main riff
Verse
Pre-Chorus
Chorus
Intro riff w/ ad libs


Solo (rhythm guitar attached to show strumming pattern) 2x
C#|--------------------------------------------------------------------------------------|
G#|--------------------------------------------------------------------------------------|
E |-10---------11------------11b12r11--------------------------------------11-----13-----|
B |--------------------------------------------------------------------------------------|
F#|--8----------9-------------9b10-r9---------------------------------------9-----11-----|
A#|--------------------------------------------------------------------------------------|
                                                                                         |
C#|--------------------------------------------------------------------------------------|
G#|--------------------------------------------------------------------------------------|
E |--------------------------------------------------------------------------------------|
B |--------------------------------------------------------------------------------------|
F#|--------------------------------------------------------------------------------------|
A#|-0-0-0-0-0-0-2-2-2-2-2-2-/10-10-10-10-10-10-10-10-10-10-10-10-10-10-10-10-10-10-10-10-|

C#|------------------------------------------------------------------|
G#|------------------------------------------------------------------|
E |-14----------------------------------------------14\-12-----------|
B |------------------------------------------------------------------|
F#|-12----------------------------------------------12\-10-----------|
A#|------------------------------------------------------------------|
                                                                     |
C#|------------------------------------------------------------------|
G#|------------------------------------------------------------------|
E |------------------------------------------------------------------|
B |------------------------------------------------------------------|
F#|------------------------------------------------------------------|
A#|-5-5-5-5-5-5-8-8-8-8-8-8-8-8-8-8-8-8-8-8-8-8-8-8-8-\6-6-6-6-6-6-6-|


Chorus
Verse riff


| /  slide up
| \  slide down
| b  bend
| h  hammer-on
| p  pull-off
===============================================================================





Comments


Popular Sevendust tabs & chords
Bender Bass Tabs
Waffle Bass Tabs
Damaged Tabs
Denial 1 Tabs
Disease 1 Tabs
Disgrace Tabs
Enemy 2 Tabs
Heart In Your Hands Tabs
Honesty Tabs
To Close To Hate Tabs


Song lyrics



↑ Back to top | Tablatures and chords are parodies/interpretations of the original songs. You may use it for private study, scholarship, research or language learning purposes only
© 2014 AZChords.com Contact us | Privacy policy | DMCA | Add/correct tabs | Request tabs | Top 50 tabs