» » »

Seu Jorge, When I Live My Dreams Tabs (ver.1)

Artists:  A B C D E F G H I J K L M N O P Q R S T U V W X Y Z # 

When I Live My Dreams Tabs (ver.1)

Seu Jorge Tabs
 Rating:
4/5 (4 votes)
When I Live My Dreams lessons Tabs too difficult? Try these video lessons and learn fast
                -------------------------------------------------------------------------------

Tuning:EADGBE

Note: This is an awesome cover of a david bowie song done by Seu Jorge and if you wanna 
this song the way it is supposed to be played
make sure not to take this tab so literally... i am using it as a
guide of how to play the song and you should definately watch "The        Life Aquatic"
and listen to how he plays it to get the specific
rhythm down. I know the chords are right because i watched the movie
and paused it while he was playing this song. Good luck and lets try
to get some more Seu Jorge tabs up here!

    Intro/Chorus riff
e|------------------------------------------------------------|
B|---6------6---6---6--------8------8---8---8-----------------|
G|---7------7---7----7--------------9---9----9----------------|
D|--------------------8-----------------------7----X3---------|
A|--------------------x-----------------------x---------------|
E|---8------8---8------------8------8---8---------------------|

    Transition riff
e|-----------6------|
B|---6-------6------|
G|---7-------8------|
D|---8-------8------|
A|---x-------6------|
E|---8--------------|

    Verse
e|-------------------------------------------------------------|
B|-------------------------------------------------------------|
G|---------2-----------------------------------5---------------|
D|---------3-----------7-----------5-----5--5--5--5------------|
A|---3--3--3--3--7--7--7--7--5--5--5--5--3--3-----3------------|
E|---1--1-----1--5--5-----5--3--3-----3------------------------|
 PM  .  .     .  .  .     .  .  .     .  .  .     .

These are pretty much the only riffs you need to know in order
to play the song and like i said earlier listen to the song so
you can get the order of the riffs down and the rhythm also. Good Luck.


| /  slide up
| \  slide down
| h  hammer-on
| p  pull-off
| ~  vibrato
| +  harmonic
| x  Mute note
===============================================================================
            
Submit corrections

comments powered by Disqus
↑ Back to top | Seu Jorge Tabs for When I Live My Dreams. Lyrics for acoustic guitar and electric guitar. Tablatures and chords are parodies/interpretations of the original songs. You may use it for private study, scholarship, research or language learning purposes only