>
 >
What I See 1

What I See 1 Guitar Tabs

Serial Joe - What I See 1 chords, tabs, tablatures, lyrics

Guitar lessons | Add/correct | Request | Top 50 tabs Artists:  A B C D E F G H I J K L M N O P Q R S T U V W X Y Z 0-9

What I See 1 Guitar Tabs – Serial Joe

CD, Sheet music, Poster

Do you like What I See 1? Share with your friends now
Bass TabsTabsTabs v2
What I See – Serial Joe

Tuning – Normal (EADGBe)

Intro/Verse
e|----------------------------------------|
B|----------------------------------------|
D|----------------------------------------|
G|-------0---0-0---0--------0---0-0---0---|
A|-----0-------------0-----0------------0-|
E|-0h2-----2-----2-----2/3----3-----3-----|

2nd part of Verse
e|---------------------------------|
B|---------------------------------|
G|---------------------------------|
D|-7-7-7-7-7-7-7-7-7-7-7-7-7-7-7-7-|
A|-5-5-5-5-5-5-5-5-5-5-5-5-5-5-5-5-|
E|---------------------------------|

Pre-Chorus
e|-----------------------|
B|-----------------------|
G|-----------------------|
D|-----------------------|
A|-4-4-4-4-4-4-4-5-5-5-5-|
E|-2-2-2-2-2-2-2-3-3-3-3-|
  PM__  PM____  PM__

Chorus
e|---------------------------------|
B|---------------------------------|
G|---------------------------------|
D|-7-7-7-7---------4-4-4-4-3-3-3-3-|
A|-5-5-5-5-4-4-4-4-2-2-2-2-1-1-1-1-|
E|---------2-2-2-2-----------------|

Bridge
E|-------------------------------|
B|-------------------------------|
G|-------------------------------|
D|-2/4-4-4/5-5-2-2-2-2-2---------|
A|-2/4---4/5---2-2-2-2-2-5-5-5-4-|
E|-0/0---0/0---0-0-0-0-0-3-3-3-2-|

Listen to song for speeds, strumming and when to repeat what. Good luck! :o)





Comments


Popular Serial Joe tabs & chords
Should Have Been Mine 1 Bass Tabs
Skydrow 1 Bass Tabs
Completely Tabs
Mistake Tabs
Mistake (Intro) Tabs
Mistake 1 Tabs
Should Have Been Mine Tabs
Silently Screaming Tabs
Velocity Tabs
What I See Tabs


Song lyrics



↑ Back to top | Tablatures and chords are parodies/interpretations of the original songs. You may use it for private study, scholarship, research or language learning purposes only
© 2014 AZChords.com Contact us | Privacy policy | DMCA | Add/correct tabs | Request tabs | Top 50 tabs