» » »

Welcome To Happyland Bass tabs (ver.1)

Artists:  A B C D E F G H I J K L M N O P Q R S T U V W X Y Z # 

Welcome To Happyland Bass tabs (ver.1)

Serial Joe
Rating:
0/5 (0 votes)

Hard to play? Try these video lessons and learn fast.
                Tuning: Drop D 

Intro/Chorus
|-----------------------------|
|-----------------------------|
|-----------------------------|
|-0-0-3-5-6-5-3-0-3-0-3-5-0-1-|
|-0-0-3-5-6-5-3-0-3-0-3-5-0-1-|
|-0-0-3-5-6-5-3-0-3-0-3-5-0-1-|

1st Verse
|---------------|
|---------------|
|-----16-----17-|
|---------------|
|-0-0----0-0----|
|-0-0----0-0----|

2nd Verse
|-----------------------|
|-----------------------|
|-----------------------|
|-0-0-x-1-1-0-0-x-4-3-1-|
|-0-0-x-1-1-0-0-x-4-3-1-|
|-0-0-x-1-1-0-0-x-4-3-1-|
(x- there's a whole buncha funky scr*pin there…listen to the song for the patterns)

Outro
|---------------------------|
|---------------------------|
|---------------------------|
|-0-0-1-0-0-1-0-0-1-0-0-1-0-|
|-0-0-1-0-0-1-0-0-1-0-0-1-0-|
|-0-0-1-0-0-1-0-0-1-0-0-1-0-|
            
Hard to play? Try these video lessons and learn fast. | Correct




comments powered by Disqus
↑ Back to top | Tablatures and chords are parodies/interpretations of the original songs. You may use it for private study, scholarship, research or language learning purposes only