» » »

Should Have Been Mine Tabs (ver.1)

Artists:  A B C D E F G H I J K L M N O P Q R S T U V W X Y Z # 

Should Have Been Mine Tabs (ver.1)

Serial Joe
Rating:
0/5 (0 votes)

Hard to play? Try these video lessons and learn fast.
                


   This is the second song I've tabbed from Serial Joe's album "Face Down". This
   song just came to me without even trying to figure it out. This song should
   definately be the second single from the album because it's soooooo good!
   Enjoy!!

   TUNING: Normal

   Intro and Chorus (**listen to the CD to get the timing**) [x2]
   e:----------------------------------------------------------------------------
   B:----------------------------------------------------------------------------
   G:----------------------------------------------------------------------------
   D:----------------------------------------------------------------------------
   A:--9--9/12--12--12--5--8--8--8--8--8--10--4--4--4--4--4--4--4--7--7--7--7--7-
   E:-----------------------------------------------------2--2--2--5--5--5--5--5-

   e:---------------
   B:---------------
   G:---------------
   D:---------------
   A:-7--7--7--7--7-
   E:-5--5--5--5--5-


   "Let me change the way you feel..."
   e:-------------------------------------------------------------------------
   B:-------------------------------------------------------------------------
   G:-------------------------------------------------------------------------
   D:-------------------------------------------------------------------------
   A:-9--9--9--9--9--9--7--7--7--7--7--7--4--x--x--4--x--4--4--4--x--x--x--x--
   E:-7--7--7--7--7--7--5--5--5--5--5--5--2--x--x--2--x--2--2--2--x--x--x--x--

   e:-----------------------------------
   B:-----------------------------------
   G:-----------------------------------
   D:-----------------------------------
   A:-4--x--x--4--x--4--4--4--x--x--x--x
   E:-2--x--x--2--x--2--2--2--x--x--x--x

   Notes:

   / = SLIDE (that's the symbol I use and I don't know if it's correct or not. 
   I just wanted to let you know that whenever I tab something, this symbol 
   means a slide)
            
Hard to play? Try these video lessons and learn fast. | Correct




comments powered by Disqus
↑ Back to top | Tablatures and chords are parodies/interpretations of the original songs. You may use it for private study, scholarship, research or language learning purposes only