>
 >
Completely

Completely Guitar Tabs

Serial Joe - Completely chords, tabs, tablatures, lyrics

Guitar lessons | Add/correct | Request | Top 50 tabs Artists:  A B C D E F G H I J K L M N O P Q R S T U V W X Y Z 0-9

Completely Guitar Tabs – Serial Joe

CD, Sheet music, Poster

Do you like Completely? Share with your friends now
Tabs
Serial Joe- Completely 
Intro 1:
e|--------------------------------------------------------------------------|
B|--------------------------------------------------------------------------|
G|--55----99----77----55----77----99---1010---99----7-----------------------|
D|--xx----xx----xx----xx----xx----xx----xx----xx----x-----------------------|
A|--33----77----55----33----55----77----88----77----5-----------------------|
E|--------------------------------------------------------------------------|

e|--------------------------------------------------------------------------|
B|--------------------------------------------------------------------------|
G|--------------10-10-9-10-9-7----------------------------------------------|
D|-77777777-----x--x--x-x--x-x----------------------------------------------|
A|-77777777-----8--8--7-8--7-5----------------------------------------------|
E|-55555555-----------------------------------------------------------------|
Intro 2:
e|--------------------------------------------------------------------------|
B|--------------------------------------------------------------------------|
G|-55-----5-55----5-77----5-77----------------------------------------------|
D|-xx-----x-xx----x-xx----x-xx77777777-------------------------------------|
A|-33-----3-33----3-55----3-55-77777777-------------------------------------|
E|-----------------------------55555555-------------------------------------|

e|--------------------------------------------------------------------------|
B|--------------------------------------------------------------------------|
G|-10-10-9-10-9-7-----------------------------------------------------------|
D|-x--x--x-x--x-x-----------------------------------------------------------|
A|-8--8--7-8--7-5-----------------------------------------------------------|
E|--------------------------------------------------------------------------|
Verse 1:
e|--------------------------------------------------------------------------|
B|--------------------------------------------------------------------------|
G|-55---77-------------------------------55----77----22---22----------------|
D|-xx---xx----------5-----------5--------xx----xx----22-5-22-5--------------|
A|-33---55----0-3-0-x-0---0-3-0-x-0-0----33----55----00-x-00-x--------------|
E|------------------3---5-------3-----------------------3----3--------------|

e|--------------------------------------------------------------------------|
B|--------------------------------------------------------------------------|
G|-55---77----------5-----------5--------55----77----22---22----------------|
D|-xx---xx----0-3-0-x-0---0-3-0-x-0-0----xx----xx----22-5-22-5--------------|
A|-33---55----------3---5-------3--------33----55----00-x-00-x--------------|
E|------------------------------------------------------3----3--------------|
Chorus:
e|--------------------------------------------------------------------------|
B|--------------------------------------------------------------------------|
G|-55-----5-55----5-77----5-77----------------------------------------------|
D|-xx-----x-xx----x-xx----x-xx77777777-------------------------------------|
A|-33-----3-33----3-55----3-55-77777777-------------------------------------|
E|-----------------------------55555555-------------------------------------|

e|--------------------------------------------------------------------------|
B|--------------------------------------------------------------------------|
G|-10-10-9-10-9-7-----------------------------------------------------------|
D|-x--x--x-x--x-x-----------------------------------------------------------|
A|-8--8--7-8--7-5-----------------------------------------------------------|
E|--------------------------------------------------------------------------|
e|--------------------------------------------------------------------------|
B|--------------------------------------------------------------------------|
G|-55-----5-55----5-77----5-77----------------------------------------------|
D|-xx-----x-xx----x-xx----x-xx77777777-------------------------------------|
A|-33-----3-33----3-55----3-55-77777777-------------------------------------|
E|-----------------------------55555555-------------------------------------|

e|--------------------------------------------------------------------------|
B|--------------------------------------------------------------------------|
G|-10-10-9-10-9-7-----------------------------------------------------------|
D|-x--x--x-x--x-x-----------------------------------------------------------|
A|-8--8--7-8--7-5-----------------------------------------------------------|
E|--------------------------------------------------------------------------|

Verse 2:
e|--------------------------------------------------------------------------|
B|--------------------------------------------------------------------------|
G|-55---77-------------------------------55----77----22---22----------------|
D|-xx---xx----------5-----------5--------xx----xx----22-5-22-5--------------|
A|-33---55----0-3-0-x-0---0-3-0-x-0-0----33----55----00-x-00-x--------------|
E|------------------3---5-------3-----------------------3----3--------------|
 
e|--------------------------------------------------------------------------| 
B|--------------------------------------------------------------------------|
G|-55-55555555----77-77777777-----------------------------------------------|
D|-xx-xxxxxxxx----xx-xxxxxxxx----------5-----------5------------------------|
A|-33-33333333----55-55555555----0-3-0-x-0---0-3-0-x-0-0--------------------|
E|-------------------------------------3---5-------3------------------------|
      |P.M.__|       |P.M.__|     

e|--------------------------------------------------------------------------| 
B|--------------------------------------------------------------------------|
G|-55-55555555----77-77777777----22---22------------------------------------|
D|-xx-xxxxxxxx----xx-xxxxxxxx----22-5-22-5----------------------------------|
A|-33-33333333----55-55555555----00-x-00-x----------------------------------|
E|----------------------------------3----3----------------------------------|
      |P.M.__|      |P.M.___|  


Chorus:
e|--------------------------------------------------------------------------|
B|--------------------------------------------------------------------------|
G|-55-----5-55----5-77----5-77----------------------------------------------|
D|-xx-----x-xx----x-xx----x-xx77777777-------------------------------------|
A|-33-----3-33----3-55----3-55-77777777-------------------------------------|
E|-----------------------------55555555-------------------------------------|

e|--------------------------------------------------------------------------|
B|--------------------------------------------------------------------------|
G|-10-10-9-10-9-7-----------------------------------------------------------|
D|-x--x--x-x--x-x-----------------------------------------------------------|
A|-8--8--7-8--7-5-----------------------------------------------------------|
E|--------------------------------------------------------------------------|




e|--------------------------------------------------------------------------|
B|--------------------------------------------------------------------------|
G|-55-----5-55----5-77----5-77----------------------------------------------|
D|-xx-----x-xx----x-xx----x-xx77777777-------------------------------------|
A|-33-----3-33----3-55----3-55-77777777-------------------------------------|
E|-----------------------------55555555-------------------------------------|

e|--------------------------------------------------------------------------|
B|--------------------------------------------------------------------------|
G|-10-10-9-10-9-7-----------------------------------------------------------|
D|-x--x--x-x--x-x-----------------------------------------------------------|
A|-8--8--7-8--7-5-----------------------------------------------------------|
E|--------------------------------------------------------------------------|

e|--------------------------------------------------------------------------|
B|--------------------------------------------------------------------------|
G|-55-----5-55----5-77----5-77----------------------------------------------|
D|-xx-----x-xx----x-xx----x-xx77777777-------------------------------------|
A|-33-----3-33----3-55----3-55-77777777-------------------------------------|
E|-----------------------------55555555-------------------------------------|

e|--------------------------------------------------------------------------|
B|--------------------------------------------------------------------------|
G|-10-10-9-10-9-7-----------------------------------------------------------|
D|-x--x--x-x--x-x-----------------------------------------------------------|
A|-8--8--7-8--7-5-----------------------------------------------------------|
E|--------------------------------------------------------------------------|

e|--------------------------------------------------------------------------|
B|--------------------------------------------------------------------------|
G|-55-----5-55----5-77----5-77----------------------------------------------|
D|-xx-----x-xx----x-xx----x-xx77777777-------------------------------------|
A|-33-----3-33----3-55----3-55-77777777-------------------------------------|
E|-----------------------------55555555-------------------------------------|
Solo (not really but oh well)
e|--------------------------------------------------------------------------|
B|--------------------------------------------------------------------------|
G|-55555555-77777777-99999999-1010101010101010------------------------------|
D|-55555555-77777777-99999999-1010101010101010------------------------------|
A|-33333333-55555555-77777777--8-8-8-8-8-8-8-8------------------------------|
E|--------------------------------------------------------------------------|
   (ALL PALM MUTE)
e|--------------------------------------------------------------------------|
B|--------------------------------------------------------------------------|
G|-55555555-77777777-----11-12-14-------------------------------------------|
D|-55555555-77777777------x-x--x-------------------------------------------|
A|-33333333-55555555------9-10-12-------------------------------------------|
E|--------------------------------------------------------------------------|
      |P.M.____________|



Chorus:
e|--------------------------------------------------------------------------|
B|--------------------------------------------------------------------------|
G|-55-----5-55----5-77----5-77----------------------------------------------|
D|-xx-----x-xx----x-xx----x-xx77777777-------------------------------------|
A|-33-----3-33----3-55----3-55-77777777-------------------------------------|
E|-----------------------------55555555-------------------------------------|

e|--------------------------------------------------------------------------|
B|--------------------------------------------------------------------------|
G|-10-10-9-10-9-7-----------------------------------------------------------|
D|-x--x--x-x--x-x-----------------------------------------------------------|
A|-8--8--7-8--7-5-----------------------------------------------------------|
E|--------------------------------------------------------------------------|

e|--------------------------------------------------------------------------|
B|--------------------------------------------------------------------------|
G|-55-----5-55----5-77----5-77----------------------------------------------|
D|-xx-----x-xx----x-xx----x-xx77777777-------------------------------------|
A|-33-----3-33----3-55----3-55-77777777-------------------------------------|
E|-----------------------------55555555-------------------------------------|

e|--------------------------------------------------------------------------|
B|--------------------------------------------------------------------------|
G|-10-10-9-10-9-7-----------------------------------------------------------|
D|-x--x--x-x--x-x-----------------------------------------------------------|
A|-8--8--7-8--7-5-----------------------------------------------------------|
E|--------------------------------------------------------------------------|

e|--------------------------------------------------------------------------|
B|--------------------------------------------------------------------------|
G|-55-----5-55----5-77----5-77-----------1010-------------------------------|
D|-xx-----x-xx----x-xx----x-xx77777777---x-x-------------------------------|
A|-33-----3-33----3-55----3-55-77777777---8-8-------------------------------|
E|-----------------------------55555555-------------------------------------|


This Tab is almost 99% - 100% right so if you have a suggestion (most likely not) E-mail me 





Comments


Popular Serial Joe tabs & chords
Shallow Bass Tabs
Silently Screaming 1 Bass Tabs
Deep Tabs
Dragon On My Shoulder Tabs
Mistake 1 Tabs
Obsession Tabs
Should Have Been Mine Tabs
Velocity Tabs
What I See Tabs
What I See 1 Tabs


Song lyrics



↑ Back to top | Tablatures and chords are parodies/interpretations of the original songs. You may use it for private study, scholarship, research or language learning purposes only
© 2014 AZChords.com Contact us | Privacy policy | DMCA | Add/correct tabs | Request tabs | Top 50 tabs