>
 >
What I Wanna Know

What I Wanna Know Guitar Tabs

Serena Ryder - What I Wanna Know chords, tabs, tablatures, lyrics

Guitar lessons | Add/correct | Request | Top 50 tabs Artists:  A B C D E F G H I J K L M N O P Q R S T U V W X Y Z 0-9

What I Wanna Know Guitar Tabs – Serena Ryder

CD, Sheet music, Poster

Do you like What I Wanna Know? Share with your friends now
Tabs
-------------------------------------------------------------------------------
-------------------------------------------------------------------------------

Tuning: Standard with Capo 1st Fret (All notes tabbed relative to capo)

Guitars:
Guitar 1 - Acoustic Guitar
Guitar 2 - Distorted Electric Guitar

  Guitar 2 - Intro
|-0--(0)--0--0--0--0--0-------------|
|-3-h-5---5--3--0--3--5~------------|
|-----------------------------------|
|-----------------------------------|
|-----------------------------------|
|-----------------------------------|

  Guitar 1 - Intro/Verse
        . .         . .         . .         . .
|-------------------------------------------------|
|-------------------------------------------------|
|-------0-0-0-------0-0-0-------0-0-0-------0-0-0-|
|-2---2-2-2-2-2---2-2-2-2-2---2-2-2-2-2---2-2-2-2-| Semi-muted, with upstrokes
|-0h2-2-----2-0h2-2-----2-0h2-2-----2-0h2-2-----2-|   where the dots are
|-------------------------------------------------|
        . .         . .         . .         . .
|-------------------------------------------------|
|-------------------------------------------------|
|-------0-0-0-------0-0-0-------2-2-0-------2-2-0-|
|-2---2-2-2-2-2---2-2-2-2-1---1-1-1-1-1---1-1-1-1-|
|-0h3-3-----3-0h3-3-----3-0h2-2-----2-0h2-2-----2-|
|-------------------------------------------------|


  Guitar 2 - Parts of the verses/prechorus
|------------------------|
|------------------------|
|-9--7--9--7--9-7--9-9-7-|
|------------------------|
|------------------------|
|------------------------|
   Palm Muted


  Guitar 1 - Chorus
|-0---0-0--0-0--0---0-0--0-0--0---0-0--0-0--0---0-0--0-0--|
|-0---0-0--0-0--0---0-0--0-0--0---0-0--0-0--0---0-0--0-0--|
|-0---0-0--0-0--0---0-0--0-0--0---0-0--0-0--0---0-0--0-0--|
|-2---2-2--2-2--2---2-2--2-2--2---2-2--2-2--2---2-2--2-2--|
|-0h2-2-2--2-2--0h2-2-2--2-2--0h2-2-2--2-2--0h2-2-2--2-2--|
|-0---0-0--0-0--0---0-0--0-0--0---0-0--0-0--0---0-0--0-0--|

|-0---0-0--0-0--0---0-0--0-0--0---0-0--0-0--0---0-0--0-0--|
|-1---1-1--1-1--1---1-1--1-1--0---0-0--0-0--0---0-0--0-0--|
|-0---0-0--0-0--0---0-0--0-0--0h2-2-2--2-0--0h2-2-2--2-0--|
|-2---2-2--2-2--2---2-2--2-2--1---1-1--1-1--1---1-1--1-2--|
|-0h3-3-3--3-3--0h3-3-3--3-3--0h2-2-2--2-2--0h2-2-2--2-2--|
|---------------------------------------------------------|


  Guitar 2 - Chorus (hard to make out, this is what it sounds like to me)
|--------------------------------------------------------|
|----5------5------5------5------5------5-----5------5---|
|-4----4-4----4-4----4-4----4-0----0-0----0-2---2-2----2-|
|--------------------------------------------------------|
|--------------------------------------------------------|
|--------------------------------------------------------|

  During the Verse after the first Chorus Guitar 2 does:
|-0~---------------------|
|--0~--------------------|
|---0~-------------------|
|----2~------------------|
|-----2~-----------------|
|------0~----------------|
 "Suppose you were lying..."

  Bridge - Guitar 1, Guitar 2 does not play
|-0--0-0--0-0--0--0-0--0-0-|-0--0-0--0-0--0--0-0--0-0--|
|-1--1-1--1-1--1--1-1--1-1-|-0--0-0--0-0--0--0-0--0-0--|
|-0--0-0--0-0--0--0-0--0-0-|-0--0-0--0-0--0--0-0--0-0--| each measure twice
|-2--2-2--2-2--2--2-2--2-2-|-2--2-2--2-2--2--2-2--2-2--|
|-3--3-3--3-3--3--3-3--3-3-|-2--2-2--2-2--2--2-2--2-2--|
|--------------------------|-0--0-0--0-0--0--0-0--0-0--|

|-0--0-0--0-0--0--0-0--0-0-|------------------------|
|-1--1-1--1-1--1--1-1--1-1-|------------------------|
|-0--0-0--0-0--0--0-0--0-0-|-2-2-2-2-2-2--2-2-2-2---| first measure twice
|-2--2-2--2-2--2--2-2--2-2-|-2-2-2-2-2-2--1-1-1-1---|
|-3--3-3--3-3--3--3-3--3-3-|-0-0-0-0-0-0--2-2-2-2---|
|--------------------------|------------------------|
                             quick hits muted after each strike
  Outro
  Guitar 1 finishes with:
|-0---------------------------|
|-0---------------------------|
|-0---------------------------|
|-2---------------------------|
|-2---------------------------|
|-0---------------------------|

  Guitar 2 fades out, playing:
|------------------------|
|------------------------|
|-9--7--9--7--9-7--9-9-7-|
|------------------------|
|------------------------|
|------------------------|
   Palm Muted


| /  slide up
| \  slide down
| h  hammer-on
| p  pull-off
| ~  vibrato
| +  harmonic
| x  Mute note
===============================================================================





Comments


Popular Serena Ryder tabs & chords
Little Bit Of Red Chords
Little Bit Of Red 1 Chords
Stumbling Over You Chords
Sweeping The Ashes Chords
What I Wouldnt Do Chords
Weak In The Knees Tabs
Calling To Say Ukulele
Music Soup Ukulele
Stompa Ukulele
Weak In The Knees Ukulele


Song lyrics



↑ Back to top | Tablatures and chords are parodies/interpretations of the original songs. You may use it for private study, scholarship, research or language learning purposes only
© 2014 AZChords.com Contact us | Privacy policy | DMCA | Add/correct tabs | Request tabs | Top 50 tabs