» » »

Serena Ryder, Weak In The Knees Tabs (ver.1)

Artists:  A B C D E F G H I J K L M N O P Q R S T U V W X Y Z # 

Weak In The Knees Tabs (ver.1)

Serena Ryder Tabs
 Rating:
4.2/5 (5 votes)
Weak In The Knees lessons Tabs too difficult? Try these video lessons and learn fast
                The song is pretty much based on 5 different chords:

   C C/B Am F  G
e|----------1--3-|
B|-1--1--1--1--3-|
G|-------2--2--4-|
D|-2-----2--3--5-|
A|-3--2-----3--5-|
E|----------1--3-|

The tab is far from complete since she varies her strumming so much throughout 
the song. I figured I'd just post somewhat of a framework to play off of. Enjoy.

CAPO 5

INTRO   C          C/B         Am                         F           G
e|-----|-----------------------------------3-1----------------1-----------3-3-3-3-3-----|
B|-----|---------------------------0h1p0-0-----0-3-1-0-1------1-----------3-3-3-3-3-----|
G|-----|-----0---------0-----------2--------------------------2-----------4-4-4-4-4-----|
D|-----|-----0h2p0-----0h2p0-------2--------------------------3-3-2-------5-5-5-5-5-----|
A|-0-2-|-3-3-3-----2-2-2----h3-0-0-0----------------------3-3-3-----3-5-5-5-5-5-5-5-5---|
E|-----|--------------------------------------------------1-1-1-------3-3-3-3-3-3-3-0h3-|

VERSE
e|---------------------------------------------1-----------3-3-3-3-3-----|
B|-------------------------0h1-1-1-1-1---------1-----------3-3-3-3-3-----|
G|-----0---------0---------2---2-2-2-2---------2-----------4-4-4-4-4-----|
D|-----0h2p0-----2p0-------2---2-2-2-2p0-------3-3-2-------5-5-5-5-5-----|
A|-3-3-3-----2-2-2--h3-0-0-0---------------3-3-3-----3-5-5-5-5-5-5-5-5---|
E|-----------------------------------------1-1-1-------3-3-3-3-3-3-3-0h3-|

e|---------------------------------------------1-----------3-3-3-3-3-----|
B|-------------------------0h1p0---0h1p0-------1-----------3-3-3-3-3-----|
G|-----0---------0---------2-------2-----------2-----------4-4-4-4-4-----|
D|-----0h2p0-----2p0-------2-------2----p0-----3-3-2-------5-5-5-5-5-----|
A|-3-3-3-----2-2-2--h3-0-0-0-----0---------3-3-3-----3-5-5-5-5-5-5-5-5---|
E|-----------------------------------------1-1-1-------3-3-3-3-3-3-3-0h3-|

CHORUS
e|-------------------------------------|
B|-----1-------3---1-1-1-1-1-1-0h1-1-1-|
G|-----2-------4---0-0-0-0-0-0-2-2-2-2-|
D|-----3-------5---2-2-0-0-0-0-2-2-2p0-|
A|-3-3-3---5-5-5---3-3-3-2-2-0-0-0-0---|
E|-1-1-1---3-3-3---0-0-0-0-0-0---------|

BRIDGE
Am F
            
Submit corrections

comments powered by Disqus
↑ Back to top | Serena Ryder Tabs for Weak In The Knees. Lyrics for acoustic guitar and electric guitar. Tablatures and chords are parodies/interpretations of the original songs. You may use it for private study, scholarship, research or language learning purposes only