>
 >
All For Love 1

All For Love 1 Guitar Tabs

Serena Ryder - All For Love 1 chords, tabs, tablatures, lyrics

Guitar lessons | Add/correct | Request | Top 50 tabs Artists:  A B C D E F G H I J K L M N O P Q R S T U V W X Y Z 0-9

All For Love 1 Guitar Tabs – Serena Ryder

CD, Sheet music, Poster

Do you like All For Love 1? Share with your friends now
ChordsTabsTabs v2Ukulele
SERENA RYDER --- ALL FOR LOVE


Chords used
     G5  G   D  D/F# A  A/C# Bm Bm/A Em
e||------3---2---2---0---0---2---2---0---||
B||------3---3---3---2---2---3---3---0---||
G||------0---2---2---2---2---4---4---0---||
D||--5---0---0---0---2---2---4---4---2---||
A||--5---2-------0---0---4---2---0---2---||
E||--3---3-------2-------------------0---||

INTRO

RIFF 1
   Guitar 1                                X2
e||--10---10---9---9---7---7---------------||
B||----------------------------10---10-----||
G||*----7----7---7---7---7---7----7----7--*||
D||*--------------------------------------*||
A||----------------------------------------||
E||----------------------------------------||
 ||                                        ||
 ||Guitar 2                                ||
e||----------------------------------------||
B||---3----3---2---2-----------------------||
G||*-------------------4---4----2----2----*||
D||*----0----0---0---0---0---0----0----0--*||
A||----------------------------------------||
E||----------------------------------------||


Slipping through the hole where the moon don't shine
Spent too long trying to make you mine
   Guitar 1                                X2
e||--10---10---9---9---7---7---------------||
B||----------------------------10---10-----||
G||*----7----7---7---7---7---7----7----7--*||
D||*--------------------------------------*||
A||----------------------------------------||
E||----------------------------------------||
 ||                                        ||
 ||Guitar 2                                ||
e||----------------------------------------||
B||---3----3---2---2-----------------------||
G||*-------------------4---4----2----2----*||
D||*----0----0---0---0---0---0----0----0--*||
A||----------------------------------------||
E||----------------------------------------||


Kept on running but I fell behind
RIFF 2
   Guitar 1                             X1
e||--10---10---9---9---7---7---5---5----||
B||-----0----0---0---0---0---0---0---0--||
G||-------------------------------------||
D||-------------------------------------||
A||-------------------------------------||
E||-------------------------------------||
 ||                                     ||
 ||Guitar 2                             ||
e||-------------------------------------||
B||---3----3---2---2--------------------||
G||-------------------4---4---2---2-----||
D||-------------------------------------||
A||-----2----2---2---2---2---2---2---2--||
E||-------------------------------------||

RIFF 1 X4
Butterfly better fly away this time
Lost my place in the line again
Put it back on the shelf and let the dust settle in

RIFF 2 X1
I always thought we'd that be more than friends
RIFF 1 X1
I always thought that we were different


PRE CHORUS
G5
Ohhhhoohh
G5
Ohhhhoohh


CHORUS
             Bm        G
I'm all for love
         	      D     A/C#
But I can't see the light
Bm
Tell me how to do it
         G		      D 	  A/C#
Tell me how I'm gonna get it right
             Bm	  Bm/A
I'm all for love
	          G		D/F#
I'm gonna try it again
                    Em		A
I don't wanna give up
                       D  (Bm after second chorus)
Cause I'm all for love


RIFF 1 X2

then

RIFF 1 X2
Nobody knows where the hell I've been
Gonna make a fool of myself again

RIFF 2 X1
Keep on getting stuck up in the same old scene

RIFF 1 X1
Baby why'd you have to go and be so mean


PRE CHORUS
CHORUS
RIFF 1 X1


BRIDGE
G		    		    D		A/C#
I don't believe in praying on your knees
G	               	     A
Just let me leave I'm over the fantasy


Chorus
RIFF 1 X3


NOTES:
*The second guitar at the end of the first chorus strums a D chord once after the A 
a Bm chord after the A chord at the end of the second chorus
*The first half of the last chorus is just chords strumed once thent he full band kicks in
*I am still working on the lead guitar parts during the song.





Comments


Popular Serena Ryder tabs & chords
Calling To Say Chords
Hiding Place Chords
Last Night I Had The Strangest Dream Chords
Little Bit Of Red Chords
Sweeping The Ashes Chords
Dark As The Black Ukulele
Hiding Place Ukulele
Last Night I Had The Strangest Dream Ukulele
Music Soup Ukulele
What I Wouldnt Do Ukulele


Song lyrics



↑ Back to top | Tablatures and chords are parodies/interpretations of the original songs. You may use it for private study, scholarship, research or language learning purposes only
© 2014 AZChords.com Contact us | Privacy policy | DMCA | Add/correct tabs | Request tabs | Top 50 tabs