» » »

Sequoyah Prep School, One Day At A Time Chords (ver.1)

Artists:  A B C D E F G H I J K L M N O P Q R S T U V W X Y Z # 

One Day At A Time Chords (ver.1)

Sequoyah Prep School Tabs
Rating:
0/5 (0 votes)
One Day At A Time lessons Tabs too difficult? Try these video lessons and learn fast
                
Listen to the song for strumming

CAPO 3rd Fret!!!!!


    VERSE

e----3-----3-----3----------------------------------------------------------|
B----3-----3-----3----------------------------------------------------------|
G----0-----0-----2----------------------------------------------------------|
D----2-----2-----0----------------------------------------------------------|
A----3-----2-----0----------------------------------------------------------|
E----0-----0-----2----------------------------------------------------------|

Chorus

e----3-----3-----3-----3----------------------------------------------------|
B----3-----3-----3-----3----------------------------------------------------|
G----0-----0-----2-----0----------------------------------------------------|
D----2-----2-----0-----0----------------------------------------------------|
A----3-----2-----0-----2----------------------------------------------------|
E----0-----0-----2-----3----------------------------------------------------|


Yeaaaaaah, yeaaah

So tell me what you're thinkin
Cuz I wanna know what's on your mind
Baby I'm still breathin
And I'm breathing slower all the time
And you say you're leavin
But you don't know why
So please don't leave right now
Cause I don't wanna be alone tonight

And next time you come back down to this town
Don't be surprised if I'm not hangin around
Cause lately I have found, that with both feet on the ground
I am losing my mind
With you it's one day at a time

So now I'm coming over
Cause I've got a few things on my mind
The airs getting colder
So don't just leave me here outside
And I'm getting older
We're both getting older all the time
Lay down on my shoulder
Just don't leave me alone tonight

Next time you come back down to this town
Don't be surprised if I'm not hangin around
Cause lately I have found, that with both feet on the ground
I am losing my mind
With you it's one day at a time

You've got your plans, and I've got mine
And I say we've got nothing but time
Time to laugh, and time to cry
Through it all you were right here by my side

Next time you come back down to this town
Don't be surprised if I'm not hangin around
Cause lately I have found, that with both feet on the ground
I still losing my mind
With you it's one day at a time

Yeaaaaaah, yeaaaah

It's one day at a time
            

comments powered by Disqus
↑ Back to top | Sequoyah Prep School Chords for One Day At A Time. Lyrics for acoustic guitar and electric guitar. Tablatures and chords are parodies/interpretations of the original songs. You may use it for private study, scholarship, research or language learning purposes only