» » »

Sepultura, Roots Bloody Roots Tabs (ver.1)

Artists:  A B C D E F G H I J K L M N O P Q R S T U V W X Y Z # 

Roots Bloody Roots Tabs (ver.1)

Sepultura Tabs
 Rating:
4/5 (4 votes)
Roots Bloody Roots lessons Tabs too difficult? Try these video lessons and learn fast
                PROPS GO TO: HOS

Sepultura - \"Roots Bloody Roots\" Guitar Tab
                                   by Christian “Corey” K.

                                        
      Intro (guitar 1)
e |-------------------------------------------|
H |-------------------------------------------|
G |-------------------------------------------|
D |-------------------------------------------|
A |-------------------------------------------|
E |---0h1-1--0h1-1--0h1-----0h1-1-0h1-1-0h1---|


               Intro (Guitar 2) 
e |----------10---------------10-------10---|
H |---14-14---------14-14-14-------14-------|
G |-----------------------------------------|
D |-----------------------------------------|
A |-----------------------------------------|
E |-----------------------------------------|


    Chorus (guitar 1&2)
e |--------------------|
H |--------------------|
G |--------------------|
D |--------------------|
A |--------------------|
E |-0h1-1--0h1-1--0h2--|


                 Verse (guitar 1)
e |-------------------------------------------|
H |-------------------------------------------|
G |-------------------------------------------|
D |-------------------------------------------|
A |-------------------------------------------|
E |---0h1-1--0h1-1--0h1-----0h1-1-0h1-1-0h1---|



Interlude (guitar 1&2)
e |---------------|  
H |---------------|
G |---------------|
D |---------------|
A |---------------| 
E |-6---5---3-2-3-|



Interlude 2 (guitar 1)    
e |--------|   
H |--------|   
G |--------|   
D |--------|   
A |---0-0--|  
E |---0-0--|   
   PM - -



           Interluder 2  (Guitar 2)
e |----------10---------------10-------10---|
H |---14-14---------14-14-14-------14-------|
G |-----------------------------------------|
D |-----------------------------------------|
A |-----------------------------------------|
E |-----------------------------------------|


During The Solo (Guitar 2)
e |----------------------|
H |----------------------|
G |----------------------|
D |----------------------|
A |---1-0-0-1-0-0--6-----|
E |---1-0-0-1-0-0--------|


         Bridge (guitar 1&2)
e |--------------------------------|
H |--------------------------------|
G |--------------------------------|
D |--------------------------------|
A |--------------------------------|
E |2\\1--3\\2--2\\1--3\\2--2--2--------|


    Outro
e |----------------------|
H |----------------------|
G |----------------------|
D |----------------------|
A |----------------------|
E |-0h1-1-1-1-1-0--------|

                            h:		 hammer on
                            b:		 bending
                            pm:	 palm muted
                            \\:		 slide
                            

                                   by Christian “Corey” K.
            
Submit corrections

comments powered by Disqus
↑ Back to top | Sepultura Tabs for Roots Bloody Roots. Lyrics for acoustic guitar and electric guitar. Tablatures and chords are parodies/interpretations of the original songs. You may use it for private study, scholarship, research or language learning purposes only