» » »

Sentenced, The Suicider Tabs (ver.1)

Artists:  A B C D E F G H I J K L M N O P Q R S T U V W X Y Z # 

The Suicider Tabs (ver.1)

Sentenced Tabs
 Rating:
4/5 (4 votes)
The Suicider lessons Tabs too difficult? Try these video lessons and learn fast
                THE SUICIDER
                    ----------------
                      by SENTENCED

tune Down to D

  intro fig  w/wah wah (maybe?)  third and fourth time w/rhy fig 1.
|-----------------|------------------|-------------------|----------------|
|'----------------|--------6h8-6-----|-------------------|---------------'|
|-9---9---9---9---|-9----9-------9-7-|-9---9---9---9---7-|---7---5--------|
|---7---7---7---7-|---10-------------|-------------------|-5---5---5--9-7-|
|'----------------|------------------|---7---7---7---7---|---------------'|
|-----------------|------------------|-------------------|----------------|

  rhy fig 1.
|----------|------------|----------|------------|
|----------|------------|----------|------------|
|----------|------------|-4-4--4-4-|------------|
|-2-2--2-2-|-2-2-2--2-2-|-2-2--2-2-|-0-0--------|
|-0-0--0-0-|-3-3-3--3-3-|----------|------3-2-0-|
|----------|------------|----------|------------|

rhy fig 2.
   ----------------------------------------------------------------------|
  |pm.                                                   1)
|------------------|-----------------|-----------------|------------------|
|'-----------------|-----------------|-----------------|-----------------'|
|------------------|-----------------|-----------------|------------------|
|--2-2-2-2-2-2-2-2-|-2-2-2-2-5-3-2-0-|-----------------|------------------|
|'-0-0-0-0-0-0-0-0-|-3-3-3-3-3-3-3-3-|-5-5-5-5-5-5-5-5-|-3-3-3-3-3-3-3-3-'|
|------------------|-----------------|-3-3-3-3-3-3-3-3-|-1-1-1-1-1-1-1-1--|

   2)          end rhy fig 2.
|-----------------------|
|-----------------------|
|-----------------------|
|-7-7-7-7-7-\-5-/-7-/-9-|
|-5-5-5-5-5-\-3-/-5-/-7-|
|-----------------------|

again to goal 1
                                                             ------------------------------|
                                                        fill 1
|-----------------|-----------------|-----------------|----|-----|-------|-----------------|
|-----------------|-----------------|-----------------|----|-----|-------|-----------------|
|-----------------|-----------------|-----------------|----|-----|-------|-----------------|
|-2-2-2-2-2-2-2-2-|-2-2-2-2-5-3-2-0-|-----------------|-3--|-(3)-|-5---5-|-3-3-3-3-3-3-3---|
|-0-0-0-0-0-0-0-0-|-3-3-3-3-3-3-3-3-|-5-5-5-5-5-5-5-5-|-3--|-(3)-|-5---3-|-1-1-1-1-1-1-1---|
|-----------------|-----------------|-3-3-3-3-3-3-3-3-|-1--|-(1)-|-3-----|-----------------|

chorus fig.   w/rhy fig 3.
|---------|-----------|----------|---------|
|'--10-10-|-10-----10-|-8--------|--------'|
|---------|----9-9----|---10-9-7-|-9-10-9~-|
|---------|-----------|----------|---------|
|'--------|-----------|----------|--------'|
|---------|-----------|----------|---------|

rhy fig 3.                                              * first time only
|-----------------|-----------------|-----------------|----------------------|
|-----------------|-----------------|-----------------|----------------------|
|-----------------|-----------------|-----------------|----------------------|
|-2-2-2---2---2---|-2---2---2---2---|-----------------|-------------------*--|
|-0-0---0---0---0-|---3---3---3---3-|-5---5---5---5---|-------3----------(2)-|
|-----------------|-----------------|---3---3---3---3-|-1--1----1--0--0------|

rhy fig 2
fill 1
chorus fig  w/rhy fig 3  x2
intro fig


 solo
|---------------------|---------------------|----------------|------------------|-----
|'--------------------|-------13------------|----------15-13-|-------/17-15-13-'|-----
|-12----12-14~--12----|-12-------14~--12----|-12----12-------|-14-12------------|-14~-
|----14------------14-|----14------------14-|----14----------|------------------|-----
|'--------------------|---------------------|----------------|-----------------'|-----
|---------------------|---------------------|----------------|------------------|-----


|-----|------|-----|------|-----|------|-------|----------------|
|-----|------|-----|------|-----|------|-------|----------------|
|-----|------|-----|------|-----|------|-------|----------------|
|-3---|-(3)--|-5---|-(5)--|-3---|-(3)--|-5---5-|-3-3-3-3-3-3-3--|
|-3---|-(3)--|-5---|-(5)--|-3---|-(3)--|-5---3-|-1-1-1-1-1-1-1--|
|-1---|-(1)--|-3---|-(3)--|-1---|-(1)--|-3-----|----------------|

chorus fig  w/rhy fig 2.  x2


outro fig  w/rhy fig 3
|-----------------|---------------------|
|'----------------|---------------------|
|-9---9---9---9---|-9----9----9----9----|
|---7---7---7---7-|---10---10---10---10-|
|'----------------|---------------------|
|-----------------|---------------------|

|-------------------------|-------------------|---------
|-------------------------|-------------------|---------
|-------------------------|-------------------|---9~~~~~~
|-12----12----12----12----|-----10------------|-2-2-----
|----10----10----10----10-|-8-8----8-7-7-5-7-'|-0-0-----
|-------------------------|-------------------|---------
            
Submit corrections

comments powered by Disqus
↑ Back to top | Sentenced Tabs for The Suicider. Lyrics for acoustic guitar and electric guitar. Tablatures and chords are parodies/interpretations of the original songs. You may use it for private study, scholarship, research or language learning purposes only