>
 >
Sun Won't Shine

Sun Won't Shine Bass Tabs

Sentenced - Sun Won't Shine chords, tabs, tablatures, lyrics

Guitar lessons | Add/correct | Request | Top 50 tabs Artists:  A B C D E F G H I J K L M N O P Q R S T U V W X Y Z 0-9

Sun Won't Shine Bass Tabs – Sentenced

CD, Sheet music, Poster

Do you like Sun Won't Shine? Share with your friends now
Bass TabsTabs
tune down

F#||------------------|------------------|--------------------|
C#||------------------|------------------|--------------------|
G#||------------------|------------------|-----------0--------|
D#||------------------|------------------|--------------------|
A#||------------------|------------------|--2-----------------|


                                                              
--------------------|--------------------|-------------------|
--------------------|--------------------|-------------------|
--------------------|-----------0--------|--2----------------|
--0--------2--------|--------------------|-------------------|
--------------------|--2-----------------|-------------------|


                                                               
--------------------|--------------------|--------------------|
--------------------|--------------------|--------------------|
-----------0--------|--------------------|--0------------2----|
--------------------|--0--------2--------|--------------------|
--2-----------------|--------------------|--------------------|


                                                                    
---------------------|------------------|--------------------------|
---------------------|------------------|--------------------------|
-----------0---------|------------------|--4--4--4--4--4--4--4--4--|
--4-------------4----|------------------|--------------------------|
---------------------|------------------|--------------------------|


                                                                               
--------------------------|--------------------------|-----------2----1-------|
--------------------------|--------------------------|--4--4--4------------4--|
--------------------------|--------------------------|------------------------|
--5--5--5--5--5--5--5--4--|--0--0--0--0--0--0--0--0--|------------------------|
--------------------------|--------------------------|------------------------|


                                                      
--------------------------|--------------------------|
--------------------------|--------------------------|
--4--4--4--4--4--4--4--4--|--------------------------|
--------------------------|--5--5--5--5--5--5--5--4--|
--------------------------|--------------------------|


                                                    
--------------------------|-----------2----1-------|
--------------------------|--4--4--4------------4--|
--------------------------|------------------------|
--0--0--0--0--0--0--0--0--|------------------------|
--------------------------|------------------------|


                                                        
|---------------------------|--------------------------|
|*--------------------------|--------------------------|
|---4--4--4--4--4--4--4--4--|--------------------------|
|*--------------------------|--5--5--5--5--5--5--5--4--|
|---------------------------|--------------------------|


                                                      
--------------------------|-----------2----1--------||
--------------------------|--4--4--4------------4--*||
--------------------------|-------------------------||
--0--0--0--0--0--0--0--0--|------------------------*||
--------------------------|-------------------------||


                                                       
---------------------------|--------------------------|
*--------------------------|--------------------------|
---4--4--4--4--4--4--4--4--|--------------------------|
*--------------------------|--5--5--5--5--5--5--5--4--|
---------------------------|--------------------------|


                                                    3x                          
--------------------------|-----------2----1--------||-------------------------|
--------------------------|--4--4--4------------4--*||-------------------------|
--------------------------|-------------------------||--0--0--0--0--0--2-------|
--0--0--0--0--0--0--0--0--|------------------------*||----------------------2--|
--------------------------|-------------------------||-------------------------|


                                                                          
-----------------------|-------------------------|-----------------------|
-----------------------|-------------------------|-----------------------|
-----------------------|--0--0--0--0--0--2----4--|----4--4--4----4--4----|
----2--2--2----2--2----|-------------------------|-----------------------|
-----------------------|-------------------------|-----------------------|


                                                                            
-------------------------|-----------------------|-------------------------|
-------------------------|-----------------------|-------------------------|
--0--0--0--0--0--2-------|-----------------------|--0--0--0--0--0--2-------|
----------------------2--|----2--2--2----2--2----|----------------------4--|
-------------------------|-----------------------|-------------------------|


                                                                
---------------------|--------------------|--------------------|
---------------------|--------------------|--------------------|
--------2-------2----|--4-----------------|--------------------|
-------------4-------|-----------5--------|--0------2----------|
---------------------|--------------------|--------------------|


                                                                  
---------------------|----------------------|--------------------|
---------------------|----------------------|--------------------|
---------------------|----------------------|--4-----------------|
--5--------5--7------|--4------7----4--7----|-----------5--------|
---------------------|----------------------|--------------------|


                                                                  
--------------------|---------------------|----------------------|
--------------------|---------------------|----------------------|
--------------------|---------------------|----------------------|
--0------2----------|--5--------5--7------|--4------7----4--7----|
--------------------|---------------------|----------------------|


                                                        
|---------------------------|--------------------------|
|*--------------------------|--------------------------|
|---4--4--4--4--4--4--4--4--|--------------------------|
|*--------------------------|--5--5--5--5--5--5--5--4--|
|---------------------------|--------------------------|


                                                                                
--------------------------|-----------2----1--------||-------------------------|
--------------------------|--4--4--4------------4--*||-------------------------|
--------------------------|-------------------------||--0--0--0--0--0--2-------|
--0--0--0--0--0--0--0--0--|------------------------*||----------------------2--|
--------------------------|-------------------------||-------------------------|


                                                                          
-----------------------|-------------------------|-----------------------|
-----------------------|-------------------------|-----------------------|
-----------------------|--0--0--0--0--0--2----4--|----4--4--4----4--4----|
----2--2--2----2--2----|-------------------------|-----------------------|
-----------------------|-------------------------|-----------------------|


                                                                            
-------------------------|-----------------------|-------------------------|
-------------------------|-----------------------|-------------------------|
--0--0--0--0--0--2-------|-----------------------|--0--0--0--0--0--2-------|
----------------------2--|----2--2--2----2--2----|----------------------4--|
-------------------------|-----------------------|-------------------------|


                                                                
---------------------|--------------------|--------------------|
---------------------|--------------------|--------------------|
--------2-------2----|--4-----------------|--------------------|
-------------4-------|-----------5--------|--0------2----------|
---------------------|--------------------|--------------------|


                                                                  
---------------------|----------------------|--------------------|
---------------------|----------------------|--------------------|
---------------------|----------------------|--4-----------------|
--5--------5--7------|--4------7----4--7----|-----------5--------|
---------------------|----------------------|--------------------|


                                                                  
--------------------|---------------------|----------------------|
--------------------|---------------------|----------------------|
--------------------|---------------------|----------------------|
--0------2----------|--5--------5--7------|--4------7----4--7----|
--------------------|---------------------|----------------------|


                                                                              
-------------------------|-------------------------|-------------------------|
-------------------------|-------------------------|-------------------------|
-------------------------|----------------2--2--2--|--4--4--4--4--4--6----7--|
--2--2--2--2--2--4----5--|----5--5--5--5-----------|-------------------------|
-------------------------|-------------------------|-------------------------|


                                                                               
--------------------------|-------------------------|-------------------------|
--------------------------|-------------------------|-------------------------|
----7--7--7--7/6-6--6/-4--|-------------------------|----------------2--2--2--|
--------------------------|--2--2--2--2--2--4----5--|----5--5--5--5-----------|
--------------------------|-------------------------|-------------------------|


                                                                         
-------------------------|-------------------------|--------------------|
-------------------------|-------------------------|--------------------|
--4--4--4--4--4--6-------|-------------2--2-----2--|-----------0--------|
----------------------0--|----0--0--0--------4-----|--------------------|
-------------------------|-------------------------|--2-----------------|


                                                              
--------------------|--------------------|-------------------|
--------------------|--------------------|-------------------|
--------------------|-----------0--------|--2----------------|
--0--------2--------|--------------------|-------------------|
--------------------|--2-----------------|-------------------|


                                                               
--------------------|--------------------|--------------------|
--------------------|--------------------|--------------------|
-----------0--------|--------------------|--0------------2----|
--------------------|--0--------2--------|--------------------|
--2-----------------|--------------------|--------------------|


                                                                        
---------------------|-------------------------|-----------------------|
---------------------|-------------------------|-----------------------|
-----------0---------|--0--0--0--0--0--2-------|-----------------------|
--4-------------4----|----------------------2--|----2--2--2----2--2----|
---------------------|-------------------------|-----------------------|


                                                                            
-------------------------|-----------------------|-------------------------|
-------------------------|-----------------------|-------------------------|
--0--0--0--0--0--2----4--|----4--4--4----4--4----|--0--0--0--0--0--2-------|
-------------------------|-----------------------|----------------------2--|
-------------------------|-----------------------|-------------------------|


                                                                        
-----------------------|-------------------------|---------------------|
-----------------------|-------------------------|---------------------|
-----------------------|--0--0--0--0--0--2-------|--------2-------2----|
----2--2--2----2--2----|----------------------4--|-------------4-------|
-----------------------|-------------------------|---------------------|


                                                                
--------------------|--------------------|---------------------|
--------------------|--------------------|---------------------|
--4-----------------|--------------------|---------------------|
-----------5--------|--0------2----------|--5--------5--7------|
--------------------|--------------------|---------------------|


                                                                 
----------------------|--------------------|--------------------|
----------------------|--------------------|--------------------|
----------------------|--4-----------------|--------------------|
--4------7----4--7----|-----------5--------|--0------2----------|
----------------------|--------------------|--------------------|


                                                                  
---------------------|----------------------|--------------------|
---------------------|----------------------|--------------------|
---------------------|----------------------|--4-----------------|
--5--------5--7------|--4------7----4--7----|-----------5--------|
---------------------|----------------------|--------------------|


                                                                  
--------------------|---------------------|----------------------|
--------------------|---------------------|----------------------|
--------------------|---------------------|----------------------|
--0------2----------|--5--------5--7------|--4------7----4--7----|
--------------------|---------------------|----------------------|


                                                                
--------------------|--------------------|---------------------|
--------------------|--------------------|---------------------|
--4-----------------|--------------------|---------------------|
-----------5--------|--0------2----------|--5--------5--7------|
--------------------|--------------------|---------------------|


                                                                             
----------------------|--------------------------|--------------------------|
----------------------|--------------------------|--------------------------|
----------------------|--4--4--4--4--4--4--4--4--|--------------------------|
--4------7----4--7----|--------------------------|--5--5--5--5--5--5--5--5--|
----------------------|--------------------------|--------------------------|


                                                                               
--------------------------|-----------2----1-------|--------------------------|
--------------------------|---------------------4--|--------------------------|
--4--4--4--4--4--4--4--4--|--2--2--2---------------|--4--4--4--4--4--4--4--4--|
--------------------------|------------------------|--------------------------|
--------------------------|------------------------|--------------------------|


                                                                               
--------------------------|--------------------------|-----------2----1-------|
--------------------------|--------------------------|---------------------4--|
--------------------------|--4--4--4--4--4--4--4--4--|--2--2--2---------------|
--5--5--5--5--5--5--5--5--|--------------------------|------------------------|
--------------------------|--------------------------|------------------------|


                     
-------------------||
-------------------||
--4----------------||
-------------------||
-------------------||





Comments


Popular Sentenced tabs & chords
Bleed 1 Bass Tabs
Her Last 5 Minutes Bass Tabs
Home In Despair Bass Tabs
Nepenthe Bass Tabs
Neverlasting 2 Bass Tabs
Warrior Of Life Bass Tabs
Where Waters Fall Frozen Bass Tabs
Blood & Tears Tabs
Farewell Tabs
Sun Won't Shine Tabs


Song lyrics



↑ Back to top | Tablatures and chords are parodies/interpretations of the original songs. You may use it for private study, scholarship, research or language learning purposes only
© 2014 AZChords.com Contact us | Privacy policy | DMCA | Add/correct tabs | Request tabs | Top 50 tabs