» » »

Sentenced, No One There Bass tabs (ver.1)

Artists:  A B C D E F G H I J K L M N O P Q R S T U V W X Y Z # 

No One There Bass tabs (ver.1)

Sentenced Tabs
 Rating:
4/5 (4 votes)
No One There lessons Tabs too difficult? Try these video lessons and learn fast
                “No One There” – Sentenced 
(D, C, G, F)

Rest until 00:09

Verse 1
|------------|-------------|------------|-----------|
|------------|-------------|------------|-----------|
|--3------3--|--3------3---|------------|-----------|
|------------|-------------|--0------0--|--0-----0--|

|------------|-------------|------------|-----------|
|------------|-------------|------------|-----------|
|--3------3--|--3------3---|------------|--5-----5--|
|------------|-------------|--3------3--|-----------|

|------------|-------------|------------|-----------|
|------------|-------------|------------|-----------|
|--3------3--|--3------3---|------------|-----------|
|------------|-------------|--3------3--|--3-----3--|

|------------|-------------|------------|-----------|
|------------|-------------|------------|-----------|
|--5------5--|--5------5---|--0------0--|--0--------|
|------------|-------------|------------|-----------|

Verse 1 Continued
|-----------------------------------------------------------------|
|-----------------------------------------------------------------|
|-3-3-3-3-3-3-3-3-3-3-3-3-3-3-3-3-----------------------------0-2-|
|---------------------------------0-0-0-0-0-0-0-0-0-0-0-0-0-0-----|

|-----------------------------------------------------------------|
|-----------------------------------------------------------------|
|-3-3-3-3-3-3-3-3-3-3-3-3-3-3-3-3-----------------5-5-5-5-5-5-5-5-|
|---------------------------------3-3-3-3-3-3-3-3-----------------|

|-----------------------------------------------------------------|
|-----------------------------------------------------------------|
|-3-3-3-3-3-3-3-3-3-3-3-3-3-3-3-3---------------------------------|
|---------------------------------3-3-3-3-3-3-3-3-3-3-3-3-3-3-3-3-|

|-----------------------------------------------|
|-----------------------------------------------|
|-5-5-5-5-5-5-5-5-5-5-5-5-5-5-5-5-0-0-0-0-0-0-0-|
|-----------------------------------------------|


Chorus

|---------------------------------------------------------------|
|---------------------------------------------------------------|
|-3-3-3-3-3-3-3-3-----------------5-5-5-5-5-5-5-5---------------|
|-----------------0-0-0-0-0-0-0-0-----------------5-5-5-5-5-5-7-|

|---------------------------------------------------------------|
|---------------------------------------------------------------|
|-3-3-3-3-3-3-3-3-----------------5-5-5-5-5-5-5-5-5-5-5-5-5-5-5-|
|-----------------0-0-0-0-0-0-0-0-------------------------------|


Verse 2 (is Verse 1 Continued part
Chorus x1

Breakdown
|----------------------------------|
|----------------------------------|
|-0-0-0-0-0-0-0-0------------------|
|-----------------0-0-0-0-0-0-0-0--| x3

|---------------------------------|
|---------------------------------|
|-5-5-5-5-5-5-5-5-5-5-5-5-5-5-5-5-|
|---------------------------------| x1


REST

|--------------------|
|--------------------|
|----------5--5------|
|--------------------|

Chorus x3 

Breakdown x2

Rest until the end of the song
            
Submit corrections

comments powered by Disqus
↑ Back to top | Sentenced Bass for No One There. Lyrics for acoustic guitar and electric guitar. Tablatures and chords are parodies/interpretations of the original songs. You may use it for private study, scholarship, research or language learning purposes only