» » »

Sentenced, No More Beating As One Bass tabs (ver.1)

Artists:  A B C D E F G H I J K L M N O P Q R S T U V W X Y Z # 

No More Beating As One Bass tabs (ver.1)

Sentenced Tabs
Rating:
0/5 (0 votes)
No More Beating As One lessons Tabs too difficult? Try these video lessons and learn fast
                Tune D, G, C, F

intro
|--------------------------------------------------------------------|
|--------------------------------------------------------------------|
|--------------------------------------------------------------------|
|-0-0-0-0-0-0-1-11-1-11-1-3-3-1-0-0-0-0-0-00-1--1-1-3--3-3-3-3-3-3-3-|

|------------------------------------|
|------------------------------------|
|-0-0-0-0-0-0-0-0--------------------|
|-----------------33-3-3-3-3-3-1-1-0-|

Verse
|-------------------------------------------------------------------|
|-------------------------------------------------------------------|
|-0-0-0-0-0-0-0-0---------------------------------------------------|
|-----------------0-0-0-0-0-0-0-0-0-1-1-1-1-1-1-1-1-0-0-0-0-0-0-0-0-|

|-------------------------------------------------------------------|
|-------------------------------------------------------------------|
|-0-0-0-0-0-0-0-0---------------------------------------------------|
|-----------------0-0-0-0-0-0-0-0-0-1-1-1-1-1-1-1-1-2-2-2-2-2-2-2-2-|

|-------------------------------------------------------------------|
|---------2-2-2-2-----------------3-3-3-3-3-3-3-3-------------------|
|-0-0-0-0-----------------------------------------------------------|
|-----------------0-0-0-0-0-0-0-0-----------------0-0-0-0-0-0-0-0-0-|


|-------------------------------------------------------------------|
|---------2-2-2-2-----------------3-3-3-3-3-3-3-3-------------------|
|-0-0-0-0-----------------------------------------------------------|
|-----------------0-0-0-0-0-0-0-0-----------------2-2-2-2-2-2-2-2-2-|

|-------------------------------------------------------------------|
|-------------------------------------------------------------------|
|-0-0-0-0-0-0-0-0---------------------------------------------------|
|-----------------0-0-0-0-0-0-0-0-0-1-1-1-1-1-1-1-1-0-0-0-0-0-0-0-0-|

pre-chorus
|--------------------------------------------------------------------|
|--------------------------------------------------------------------|
|--------------------------------------------------------------------|
|-0-0-0-0-0-0-1-11-1-11-1-3-3-1-0-0-0-0-0-00-1--1-1-3--3-3-3-3-3-3-3-|

Chorus
|------------------------------------------------------------|
|------------------------------3-3-3-3-3-3-3-3---------------|
|-0-00-0-00-0-00---------------------------------------3-3-2-|
|----------------3-3-33-33-3-3-----------------0-0-3-3-------|

|--------------------------------------------------------------|
|------------------------------3-3-3-3-3-3-3-3-0-0-------------|
|-0-00-0-00-0-00-----------------------------------3-3-2-2-0-0-|
|----------------3-3-33-33-3-3---------------------------------|

Verse 
Pre-chorus
Chorus

Break
|-----------|
|-----------|
|-------2-3-|
|-1-1-1-----|

Bass and vocal solo
|--------------------------------------------------------------------------------|
|--------------------------------------------------------------------------------|
|-0-0-0-0-0-0-0-0-0-3-3-3-3-3-3-3-3-----------------------------------0-0-0-0-0-0|
|-----------------------------------0-0-0-0-0-0-0-0-1-1-1-1-1-1-1-1-1------------|

----------------------------------------------------|
--------------------2-2-2-2-2-2-2-2-3-3-3-3-3-3-3-3-|
0-0-3-3-3-3-3-3-3-3---------------------------------|
----------------------------------------------------|

Solo
|--------------------------------------------------------------------|
|--------------------------------------------------------------------|
|-----------------3-33-3-33-3-----------------------3-33-3-33-3------|
|-0-0-0-0-0-0-0-0-------------3-3-1-0-0-0-0-0-0-0-0-------------3-3-1|

|------------------------------------------------------|
|------------------------------------------------------|
|-----------------3-33-3-33-3--------------------------|
|-0-0-0-0-0-0-0-0-------------3-3-1-0-0-0-0-0-0-0-0-1~-|

Rest

then
|---------------|
|-0-0-----------|
|-----3-3-2-2-0-|
|---------------|

Chorus

Outro
|----------------------------------|    |----|
|----------------------------------|    |----|
|-0-0-0-0-0-0-0-0------------------|    |----|
|-----------------33-3-3-3-3-1-1-0-| x4 |-1~-|
            
Submit corrections

comments powered by Disqus
↑ Back to top | Sentenced Bass for No More Beating As One. Lyrics for acoustic guitar and electric guitar. Tablatures and chords are parodies/interpretations of the original songs. You may use it for private study, scholarship, research or language learning purposes only