>
 >
No More Beating As One

No More Beating As One Guitar Tabs

Sentenced - No More Beating As One chords, tabs, tablatures, lyrics

Guitar lessons | Add/correct | Request | Top 50 tabs Artists:  A B C D E F G H I J K L M N O P Q R S T U V W X Y Z 0-9

No More Beating As One Guitar Tabs – Sentenced

CD, Sheet music, Poster

Do you like No More Beating As One? Share with your friends now
Bass TabsBass Tabs v2Tabs
SENTENCED: NO MORE BEATING AS ONE
				     From the Album CRIMSON
				  Copyright 2000 - Century Media
				   Version 1.0 - November 2000	

.=palm mute
h=hammer-on
p=pull-off
x=percussive mute



TUNING D (D,G,C,F,A,d)

INTRO (clean) (this is tabbed very roughly)
|-------------0--------0-------------|--------------------0-------------|
|---------1h3-1--0---------0---------|----------1p0----0------0---------|
|-----2---2---2--0-0-----------0-----|-------2--2---2--0----------0-----|
|---2-----2---2--2-----------------2-|-----3----3------2--------------2-|
|-0-----0-0---0--2-------------------|---3-------------2----------------|
|----------------0---0---0---0---0---|-1---------------0----0---0---0---|

|-------------0--------0-------------|------------------0-------------|
|---------1h3-1--0---------0---------|---------1p0----3-----3---------|
|-----2---2---2--0-0-----------0-----|-------2-----2--2---------2-----|
|---2-----2---2--2-----------------2-|-----3----------0-------------0-|
|-0-----0-0---0--2-------------------|---3------------0---------------|
|----------------0---0---0---0---0---|-1--------------2---2---2---2---|


RIFF 1
|--------------|--------------------|---------------|-------------------------|
|--------------|-1-----1------------|---------------|-------------------------|
|--------------|-2-----2------------|---------------|-2--2--------------------|
|-2--2-2-2-0-2-|-3-----3----3-----3-|-2--2-2-2-0-22-|-3--3------0-0-0-0-0-0-0-|
|-2--2-2-2-0-2-|-3--33-3-33-3-2-2-3-|-2--2-2-2-0-22-|-3--3-3-2--2-2-2-2-2-2-2-|
|-0--0-0-0-0-0-|-1--11-1-11-1-3-3-1-|-0--0-0-0-0-00-|-1--1-1-3--3-3-3-3-3-3-3-|
		    ..    ..  		         ..        .    . . . . . .	

RIFF 2
||------------------|--------------------||
||------------------|--------------------||
||.-----------------|-------------------.||
||.-2-2-2-0-0-2-2-0-|-----------------2-.||
||--0-0-0-0-0-0-0-0-|---2-2-2-2-2-3-3-2--||
||------------------|33-3-3-3-3-3-1-1-0--||
		     ..

RIFF 3A						      |1.		   |
|----------------|--------------------|---------------|--------------------|
|----------------|--------------------|---------------|--------------------|
|-2--------------|--------------------|---------------|--------------------|
|-2--2-2-2-2-2-2-|2--2-2-2-2-2-2--2-2-|3--------------|2--2-2-2-2-2-2--2-2-|
|-0--0-0-0-0-0-0-|2--2-2-2-2-2-2--2-2-|3--3-3-3-3-3-3-|2--2-2-2-2-2-2--2-2-|
|----------------|0--0-0-0-0-0-0--0-0-|1--1-1-1-1-1-1-|0--0-0-0-0-0-0--0-0-|
     . . . . . .     . . . . .    . .     . . . . . .     . . . . .    . .

|2.		     |
|--------------------|
|--------------------|
|--------------------|
|--------------------|
|0--0-0-0-0-0-0--0-0-|
|2--2-2-2-2-2-2--2-2-|
    . . . . .    . .


RIFF 3B						      |1.  	            |	
|----------0-----|--------------------|---------------|---------------------|
|-1--------1-3-1-|0------------0------|1--------1-0-0-|-0------------0------|
|-2--------2-2-2-|0------------0------|2--------2-2-0-|-0------------0------|
|-2--2-2-2-2-2-2-|2--2-2-2-2-2-2--2-2-|3--3-3-3-3-3-3-|-2--2-2-2-2-2-2--2-2-|
|-0--0-0-0-------|2--2-2-2-2-2-2--2-2-|---------------|-2--2-2-2-2-2-2--2-2-|
|----------------|0--0-0-0-0-0-0--0-0-|---------------|-0--0-0-0-0-0-0--0-0-|
|    . . .       |   . . . . .    . . |   . . .       |    . . . . .    . . |	
|		 |		      |		      |			    |
|----------------|--------------------|---------------|---------------------|
|----------------|--------------------|---------------|---------------------|
|-2--------------|--------------------|---------------|---------------------|
|-2--2-2-2-2-2-2-|2--2-2-2-2-2-2--2-2-|3--------------|-2--2-2-2-2-2-2--2-2-|
|-0--0-0-0-0-0-0-|2--2-2-2-2-2-2--2-2-|3--3-3-3-3-3-3-|-2--2-2-2-2-2-2--2-2-|
|----------------|0--0-0-0-0-0-0--0-0-|1--1-1-1-1-1-1-|-0--0-0-0-0-0-0--0-0-|
     . . . . . .     . . . . .    . .     . . . . . .      . . . . .    . .


|2.		      |	
|---------------------|
|-3------------3------|
|-2------------2------|
|-0------------0------|
|-0--0-0-0-0-0-0--0-0-|
|-2--2-2-2-2-2-2--2-2-|
|    . . . . .    . . |
|		      |	
|---------------------|
|---------------------|
|---------------------|
|---------------------|
|-0--0-0-0-0-0-0--0-0-|
|-2--2-2-2-2-2-2--2-2-|
     . . . . .    . .


FILL 1
|--------------|--------------------|--------------|--------------------------|
|--------------|--------------------|--------------|--------------------------|
|--------------|-2-----2------------|--------------|-2--2---------------------|
|-2--2-2-2-0-2-|-3-----3------------|-2--2-2-2-0-2-|-3--3-x-----0-0-0-0-0-0-0-|
|-2--2-2-2-0-2-|-3--33-3-33-3-2-2-3-|-2--2-2-2-0-2-|-3--3-x--2--2-2-2-2-2-2-2-|
|-0--0-0-0-0-0-|-1--11-1-11-1-3-3-1-|-0--0-0-0-0-0-|-1--1-x--3--3-3-3-3-3-3-3-|
		    ..   ..                			. . . . . . .


RIFF 4						       |1.	       |	
|------------------|-----------------|-----------------|---------------|
|------------------|-----------------|-----1-3---1---0-|---------------|
|-2-----2-----2----|-----------------|---2-------------|---------------|
|-2-----2-----2----|-----------------|-3-------3---3---|-2-2-----2-2-0-|
|-0--00-0--00-0-00-|-5-3----2----3-2-|-----------------|-2-2-2-2-3-3-2-|
|------------------|-3-3-33-3-33-3-3-|-----------------|-0-0-3-3-------|
     ..    ..   ..       ..   ..	

|2.		|
|---------------|
|-3-3-----------|
|-2-2-----------|
|-0-0-2-2-0-0-0-|
|-----3-3-2-2-0-|
|---------------|

RIFF 3A
RIFF 3B

FILL2
|------------|
|-----1------|
|---2--------|GTR 1
|-3-----0--2-|
|-------2--3-|
|------------|
|	     |	
|	     |	
|------------|
|------------|
|------------|GTR 2
|-3-3-3-0--2-|
|-3-3-3-2--3-|
|-1-1-1------|


BASS & KEYBOARD PART
*Here you can of course play the chords (given in RIFF 5) with guitar.
 That's what Sentenced does when playing live.


RIFF 5
||-------------------------------------------------------------------------||
||--3------------------1----------------0-------------------1--------------||
||.-2------------------0----------------0-------------------2-------------.||
||.-0------------------2----------------2-------------------3-------------.||
||--0------------------3----------------2-------------------3--------------||
||--------------------------------------0-------------------1--------------||


SOLO w/RIFF 6

RIFF 6
|--------------|--------------------|--------------|--------------------|
|--------------|-1-----1----1-------|--------------|-1-----1----1-------|
|--------------|-2-----2----2-------|--------------|-2-----2----2-------|
|-2--2-2-2-0-2-|-3-----3----3-------|-2--2-2-2-0-2-|-3-----3----3-------|
|-2--2-2-2-0-2-|-3--33-3-33-3-2-2-3-|-2--2-2-2-0-2-|-3--33-3-33-3-2-2-3-|
|-0--0-0-0-0-0-|--------------3-3-1-|-0--0-0-0-0-0-|--------------3-3-1-|
                    ..   ..  				..   ..

|--------------|--------------------|--------------|-let ring-----------|
|--------------|-1-----1----1-------|--------------|--------------------|
|--------------|-2-----2----2-------|--------------|-2------------------|
|-2--2-2-2-0-2-|-3-----3----3-------|-2--2-2-2-0-2-|-3------------------|
|-2--2-2-2-0-2-|-3--33-3-33-3-2-2-3-|-2--2-2-2-0-2-|-3------------------|
|-0--0-0-0-0-0-|--------------3-3-1-|-0--0-0-0-0-0-|-1------------------|
                    ..   .. 

And with the last rays...

FILL3
|---------------|
|-3-3-----------|
|-2-2-----------|
|-0-0-2-2-0-0-0-|
|-----3-3-2-2-0-|
|---------------|

RIFF 4

RIFF 7
|-----------------|------------------|
|-----------------|------------------|
|-----------------|------------------|
|-2-2-2-0-0-2-2-0-|------------------|
|-0-0-0-0-0-0-0-0-|----2-2-2-2-3-3-2-|
|-----------------|-33-3-3-3-3-1-1-0-|
		    ..

Repeat RIFF 7 3x

ENDING
|-let ring--------|
|-----------------|
|-2---------------|
|-3---------------|
|-3---------------|
|-1---------------|





Comments


Popular Sentenced tabs & chords
Fragile Bass Tabs
Let Go Bass Tabs
No One There 2 Bass Tabs
Sun Won't Shine Bass Tabs
Excuse Me While I Kill Myself Chords
Blood & Tears Tabs
Nepenthe Tabs
The Suicider Tabs
Despair-ridden Hearts Ukulele
Vengeance Is Mine 2 Ukulele


Song lyrics



↑ Back to top | Tablatures and chords are parodies/interpretations of the original songs. You may use it for private study, scholarship, research or language learning purposes only
© 2014 AZChords.com Contact us | Privacy policy | DMCA | Add/correct tabs | Request tabs | Top 50 tabs