» » »

Sentenced, Neverlasting Bass tabs (ver.1)

Artists:  A B C D E F G H I J K L M N O P Q R S T U V W X Y Z # 

Neverlasting Bass tabs (ver.1)

Sentenced Tabs
 Rating:
4/5 (4 votes)
Neverlasting lessons Tabs too difficult? Try these video lessons and learn fast
                Tune Down

F#||------------------|--------------------------|--------------------------|
C#||------------------|--------------------------|--------------------------|
G#||------------------|--4--4--4--4--4--4--4--4--|--4--4--4--4--4--4--4--4--|
D#||------------------|--------------------------|--------------------------|


                                                      
--------------------------|--------------------------|
--------------------------|--------------------------|
--------------------------|--2--2--2--2--2--2--2--2--|
--0--0--0--0--0--0--0--0--|--------------------------|


                                                      
--------------------------|--------------------------|
--------------------------|--------------------------|
--4--4--4--4--4--4--4--4--|--4--4--4--4--4--4--4--4--|
--------------------------|--------------------------|


                                                      
--------------------------|--------------------------|
--------------------------|--------------------------|
--------------------------|--2--2--2--2--2--2--2--2--|
--0--0--0--0--0--0--0--0--|--------------------------|


                                                      
--------------------------|--------------------------|
--------------------------|--------------------------|
--4--4--4--4--4--4--4--4--|--------------------------|
--------------------------|--0--0--0--0--0--0--0--0--|


                                                                                
--------------------------|-------------------------|--------------------------|
--------------------------|--------------4----2--1--|--------------------------|
--2--2--2--2--2--2--2--2--|--2--2--2--2-------------|--4--4--4--4--4--4--4--4--|
--------------------------|-------------------------|--------------------------|


                                                                          
--------------------------|-------------------------|--------------------|
--------------------------|--------------4----2--1--|--------------------|
--------------------------|--2--2--2--2-------------|-----------2--------|
--0--0--0--0--0--0--0--0--|-------------------------|--0-----------------|


                                                        
|---------------------------|--------------------------|
|*--------------------------|--------------------------|
|*--4--4--4--4--4--4--4--4--|--------------------------|
|---------------------------|--0--0--0--0--0--0--0--0--|


                                                                              
--------------------------|--------------------------||----------------------|
--------------------------|--------------4----2--1--*||----------------------|
--2--2--2--2--2--2--2--2--|--2--2--2--2-------------*||----------------------|
--------------------------|--------------------------||--5----5----5----5----|


                                  
--------------------------|-----||
--------------------------|-----||
--------------------------|-----||
--4--4--4--4--4--4--4--4--|--4--||
            
Submit corrections

comments powered by Disqus
↑ Back to top | Sentenced Bass for Neverlasting. Lyrics for acoustic guitar and electric guitar. Tablatures and chords are parodies/interpretations of the original songs. You may use it for private study, scholarship, research or language learning purposes only