» » »

Sentenced, Nepenthe Bass tabs (ver.1)

Artists:  A B C D E F G H I J K L M N O P Q R S T U V W X Y Z # 

Nepenthe Bass tabs (ver.1)

Sentenced Tabs
 Rating:
4/5 (4 votes)
Nepenthe lessons Tabs too difficult? Try these video lessons and learn fast
1
                         
                               NEPENTHE  by  SENTENCED  


    tune half step down

Gb|------------------------------------------------------------------------------|
Db|-0--0----0---------------------7-5--------------------------------------------|
Ab|--------------0----3---------------8-7---8-7h8p7----5--5-5-5------------------|
Eb|----------------------3--1-----------------------8-----------6--6-6-6--6--6-6-|

|-------------------------------------------------------------------------|
|-----------------------------------------------------7-5-----------------|
|-3--3-3-3------------------5--5-5-5----------------------8-7---8-7h8p7---|
|----------3--3-3-3--3--3-3----------6--6-6-6--6--6-6-------------------8-|
                                                                   Think a-

rhy fig 1.                                              
|-----------------------------------------------------|  
|-----------------------------------------------------|  rhy fig 1. 3x
|-5--5-5-5------------------3--3-3-3------------------|
|----------6--6-6-6--6--6-6----------3--3-3-3--3--3-3-|
 bout,                  all the good in your life

rhy fig 2.
|----------------------------|
|------------3--3------------| fhy fig 2. 3x
|-1---1--1---------3--5--3---|
|----------------------------|
            So drink to forget, 

                                       ------------------ 
rhy fig 3.                             |1
|-------------------------------------------------------|
|'--0------------0-------------------------------------'| 
|'------3---1--------3---1---0------------0------------'|
|--------------------------------3---1--------3---1-----|
        All the tears and the fears ...
                                       --------------------
                                       |2
                                        ------------------|
                                        ------------------|
                                        --0---3-----------|
                                        ----------3---1---|  



|---7-------------0---------|
|-------8----7---------0----|
|---------------------------|
|---------------------------|
                              
            
Submit corrections

comments powered by Disqus
↑ Back to top | Sentenced Bass for Nepenthe. Lyrics for acoustic guitar and electric guitar. 1 Tablatures and chords are parodies/interpretations of the original songs. You may use it for private study, scholarship, research or language learning purposes only