» » »

May Today Become The Day Bass tabs (ver.1)

Artists:  A B C D E F G H I J K L M N O P Q R S T U V W X Y Z # 

May Today Become The Day Bass tabs (ver.1)

Sentenced
Rating:
0/5 (0 votes)

Hard to play? Try these video lessons and learn fast.
                “May Today Become The Day” - Sentenced

Intro 1 (do the first part x4 then the next part)
F|--------------------------------||-------------------7p5h7-----------------|
C|--------------------------------||-------------------------7-5-3-----------|
G|-5-7---5-7---5-7---5-7---7------||-5-7---5-7----5-7--------------5--3------|
D|-----0-----0-----0--------------||-----0------0----------------------------|

Intro 2
F|--------------------------------------------------------------|
C|--------------------------------------------------------------|
G|--------------------------------------------------------------|
D|-0—0-0-0-0-0---0-0-0-0-0-0---3-3-3-3-3-3-3---3-3-3-3-3-3-3----|

F|--------------------------------------------------------------|
G|--------------------------------------------------------------|
C|--------------------------------------------------------------|
D|-5-5-5-5-5-5---5-5-5-5-5-5---6-6-6-6-6-6-6—--6-6-6-6-6-6-6-6--| x2


Verse
F|---------------------------------------------------------------------------|
G|---------------------------------------------------------5-4-2-------------|
C|------------5-5----------------------5-5--3-3-3-3-3-3-3--------5-2---------|
D|-0-0---3-3-------0-0------0-0---3-3--------------------------------5-3-2---|

F|------------------------------------------------------------------------------|
G|------------------------------------------------------------------------------|
C|------------5-5----------------------5-5--3-3-3-3-3-3-3----------5-5-5-5------|
D|-0-0---3-3-------0-0------0-0---3-3----------------------5-5-5-5--------------|

Chorus
F|---------------------------------------------------------------------------|
G|---------------------------------------------------------------------------|
C|-3-3-3-3-3-3-3-3-3-3-3-3-3-3-3-3-------------------------------------------|
D|---------------------------------3-3-3-3-3-3-3-3-3-0-0-0-0-0-0-0-0---------|

F|---------------------------------------------------------------------------|
G|---------------------------------------------------------------------------|
C|-3-3-3-3-3-3-3-3-3-3-3-3-3-3-3-3-------------------5-5-5-5-5-5-5-5-5-------|
D|---------------------------------3-3-3-3-3-3-3-3-3-------------------------|

Repeat 1st bar

F|---------------------------------------------------------------------------|
G|---------------------------------------------------------------------------|
C|-------------------------------------------------5-5-5-5-5-5-5-5-----------|
D|-5-5-5-5-5-5-5-5-5-5-5-5-5-5-5-5-3-3-3-3-3-3-3-3---------------------------|

Intro 2
Verse
Chorus

F|-----------------------------------------------------|
G|-----------------------------------------------------|
C|-----------------------------------------------------|
D|-3-5-5-3-5-3-5-5-0-5-----3-5-5-3-5-5-3-5-5-2-0—0-0-0-| x4

Verse
Chorus x2
Intro 2 until the end
            
Hard to play? Try these video lessons and learn fast. | Correct




comments powered by Disqus
↑ Back to top | Tablatures and chords are parodies/interpretations of the original songs. You may use it for private study, scholarship, research or language learning purposes only