» » »

Sentenced, Keep My Grave Open Bass tabs (ver.1)

Artists:  A B C D E F G H I J K L M N O P Q R S T U V W X Y Z # 

Keep My Grave Open Bass tabs (ver.1)

Sentenced Tabs
Rating:
0/5 (0 votes)
Keep My Grave Open lessons Tabs too difficult? Try these video lessons and learn fast
                “Keep My Grave Open” – Sentenced
Tuning: D, C, G, F

Intro
|-----------------------------------------|
|-----------------------------------------|
|-0----------------0----------------------|
| ---1~-----1-0-3~-----1~----1-0-3~---5~--|

Rest

Verse x2
|-------------------------------|
|-------------------------------|
|-0---0-------------------------|
|--------3---3---2---2----------|

X2
|------------------------------|
|------------------------------|
|-0~---------------------------|
|---------3~-----2~-----3~-----|

Chorus 
|-----------------------------------------------------------------|
|-----------------------------------------------------------------|
|-4-4-4—4-4—4----4-4-4—4-4—4--------------------------------------|
|--------------------------------------3-3-3—3-3—3---0-0-0—0-0—0--|

X2
|-------------------------------------------------------------------|
|-------------------------------------------------------------------|
|-4-4-4—4-4-4-4----4-4-4—4-4-4-4------------------------------------|
|------------------------------------3-3-3—3-3-3-3---2-2-2---0-0-0--|

Interlude x2
|----------------------------------|
|----------------------------------|
|-6---6---6---6--------------------|
|------------------7---7---4---4---|

Intro

Solo
|--------------------------------------------------------------------------|
|--------------------------------------------------------------------------|
|-0-0----------------------------------------------------------------------|
|--------1-1---1-1---1-1---3-3---3-3---5-5---5-5---1-1---1-1---0-0---0-0---|

Verse

Chorus

Interlude

Outro
|---------------------------------------------|
|---------------------------------------------|
|-0---------------------5---3---2---0~--------|
| ---1~-----1-0-3~----------------------------|
            

comments powered by Disqus
↑ Back to top | Sentenced Bass for Keep My Grave Open. Lyrics for acoustic guitar and electric guitar. Tablatures and chords are parodies/interpretations of the original songs. You may use it for private study, scholarship, research or language learning purposes only