» » »

Sentenced, Karu Bass tabs (ver.1)

Artists:  A B C D E F G H I J K L M N O P Q R S T U V W X Y Z # 

Karu Bass tabs (ver.1)

Sentenced Tabs
Rating:
0/5 (0 votes)
Karu lessons Tabs too difficult? Try these video lessons and learn fast
                “Karu” – Sentenced 

Standard tuning

|-------------------------------------------------------------------|
|---6-8-9-9/11--8-8/9------------6-8-9-9/11--9-8-11-9-8-------------|
|-6----------------------------6------------------------------------|
|-------------------------------------------------------------------|

|-------------------------------------------------------------------|
|---6-8-9-9/11--8-8/9------------6-8-9-9/11--9-8-13-11-9-8----------|
|-6----------------------------6------------------------------------|
|-------------------------------------------------------------------|

|-------------------------------------------------------------------|
|-13----13/14----11--13/14---9--9-11-9-8--9-9/11--------------------|
|-------------------------------------------------------------------|
|-------------------------------------------------------------------|

|-------------------------------------------------------------------|
|-13-14-11-11/13----9-8-11-8-9-8------------------------------------|
|--------------------------------11-10------------------------------|
|-------------------------------------------------------------------|

|-13-13-12-------11-------------------------------------------------|
|----------14-13----14-11-9-13-11-8-9-11-11/13------6--8--5--6------|
|-------------------------------------------------------------------|
|-------------------------------------------------------------------|

END
            
Submit corrections

comments powered by Disqus
↑ Back to top | Sentenced Bass for Karu. Lyrics for acoustic guitar and electric guitar. Tablatures and chords are parodies/interpretations of the original songs. You may use it for private study, scholarship, research or language learning purposes only