» » »

Home In Despair Bass tabs (ver.1)

Artists:  A B C D E F G H I J K L M N O P Q R S T U V W X Y Z # 

Home In Despair Bass tabs (ver.1)

Sentenced
Rating:
0/5 (0 votes)

Hard to play? Try these video lessons and learn fast.
                “Home In Despair” – Sentenced

(D, G, C, F)

Intro
F||-------------------|------------------|-------------------|
C||-------------------|------------------|-------------------|
G||--3----------------|------3-----------|--3---2------------|
D||-------------------|------------------|-------------------|

|-------------------------|-----------------------|
|-------------------------|-----------------------|
|-------------------------|--5-5-5--5--0-0-0--0—-2|
|--0--0--0----3-3-3--3----|-----------------------|

|------------------------|--------------------------|-----------------|
|------------------------|--------------------------|-----------------|
|------------------------|--5-5-5—-5-----3-3-3---3--|--0—0--0—0--2—-3-|
|-0--0--0----3-3-3--3----|--------------------------|-----------------|

Verse
|--------------------------|--------------------------|
|--------------------------|--------------------------|
|--------------------------|--------------------------|
|--0--0--0---0-0--0--0--0--|--3--3--3---3-3--3--3--3--|
                                               Play this twice
|--------------------------|-------|--------------------------|
|--------------------------|-------|--------------------------|
|--------------------------|-------|--------------------------|
|--0--0--0---0-0--0--0--0--|--3----|--0--0--0---0-0--0--0--0--|
                                           Repeat ends here
|--------------------------|--------------------------|
|--------------------------|--------------------------|
|--------------------------|--3--3--3---3-3--3--3--2--|
|--3--3--3---3-3--3--3--3--|--------------------------|

      Play this once           then this
|--------------------------|-------|
|--------------------------|-------|
|--0--0--0---0-0--2--0-----|---0---|
|-----------------------3--|-------|

|-------------|--------------------------|----------------------------|
|-------------|--------------------------|----------------------------|
|---0--0------|--------------------------|----------------0-2--0------|
|-------------|--0--0--0--0-0-0--2----3--|----3--3--3-3-3--------3-0--|

             X2              Play this before you repeat
|--------------------------|--------------------------|
|--------------------------|--------------------------|
|--3--3--3--3-3-3-------0--|----0--0--0-0-0--2--0-----|
|------------------3-------|-----------------------3--|

         When you do the repeat play this one after
|-------------------------|-------------------------|
|-------------------------|-------------------------|
|----0--0--0-0-0--2----3--|----3--3--3--3--3--3--3--|
|:------------------------|------------------------;|


Chorus (1st bar x2. 2nd Bar x1.)
|-------------------------|-----------------------|
|-------------------------|-----------------------|
|-------------------------|--5-5-5--5--0-0-0--0—-2|
|--0--0--0----3-3-3--3----|-----------------------|

|------------------------|--------------------------|-----------------|
|------------------------|--------------------------|-----------------|
|------------------------|--5-5-5—-5-----3-3-3---3--|--0—0--0—0--2—-3-|
|-0--0--0----3-3-3--3----|--------------------------|-----------------|

Verse 2, start at the repeating sections

Chorus again

After the chorus play this bit
|------------------------------|
|------------------------------|
|----3-3-3--3-3-3--3-3-3-2-0---|
|----------------------------3-|

Repeat all of that (the chorus with the bit at the end)

Chorus (I know again)

End
|--------------------------|--------------------------|
|--------------------------|--------------------------|
|--------------------------|--------------------------|
|--0--0--0---0-0--0--0--0--|--3--3--3---3-3--3--3--3--|

|--------------------------|-------------------|
|--------------------------|-------------------|
|--3--3--3---3-3--3--3--2--|--0----------------|
|--------------------------|-------------------|
            
Hard to play? Try these video lessons and learn fast. | Correct




comments powered by Disqus
↑ Back to top | Tablatures and chords are parodies/interpretations of the original songs. You may use it for private study, scholarship, research or language learning purposes only