» » »

Sentenced, Fragile Bass tabs (ver.1)

Artists:  A B C D E F G H I J K L M N O P Q R S T U V W X Y Z # 

Fragile Bass tabs (ver.1)

Sentenced Tabs
 Rating:
4/5 (4 votes)
Fragile lessons Tabs too difficult? Try these video lessons and learn fast
                “Fragile” - Sentenced

Intro
F||-------------------|------------------|------------------|------------------|
C||-------------------|------------------|------------------|------------------|
G||--5----------------|------------------|------------------|------------------|
D||-------------------|------------------|------------------|------------------|

-------------------|------------------|-------------------|--------------------|
-------------------|------------------|-------------------|--------------------|
--1----------------|------------------|-------------------|-----------------3--|
-------------------|------------------|--1----------------|--3-----------------|

--------------------------|--------------------------|
--------------------------|--------------------------|
--5--5--5--5--5--5--5--5--|--5--5--5--5--5--5--5--5--|
--------------------------|--------------------------|

--------------------------|--------------------------|
--------------------------|--------------------------|
--1--1--1--1--1--1--1--1--|--1--1--1--1--1--1--1--1--|
--------------------------|--------------------------|

--------------------------|--------------------------|
--------------------------|--------------------------|
--0--0--0--0--0--0--0--0--|--0--0--0--0--0--0--0--0--|
--------------------------|--------------------------|

--------------------------|--------------------------|
--------------------------|--------------------------|
--------------------------|--------------------------|
--3--3--3--3--3--3--3--3--|--3--3--3--3--3--3--3--3--|
                                                             Verse
--------------------------|--------------------------|-------------------------|
--------------------------|--------------------------|-------------------------|
--------------------------|-----------5--5--5--5--3--|--5----5--5--5--5--5--5--|
--3--3--3--1--1--1--1--1--|--0--0--0-----------------|-------------------------|

--------------------------|--------------------------|
--------------------------|--------------------------|
--5--5--5--5--5--5--5--5--|--1--1--1--1--1--1--1--1--|
--------------------------|--------------------------|

--------------------------|--------------------------|
--------------------------|--------------------------|
--1--1--1--1--1--1--1--1--|--0--0--0--0--0--0--0--0--|
--------------------------|--------------------------|

--------------------------|--------------------------|
--------------------------|--------------------------|
--0--0--0--0--0--0--0--0--|--------------------------|
--------------------------|--3--3--3--3--3--3--3--3--|

--------------------------|-------------------------|--------------------------|
--------------------------|-------------------------|--------------------------|
-----------------------3--|--5----5--5--5--5--5--5--|--5--5--5--5--5--5--5--5--|
--3--3--3--3--3--3--3-----|-------------------------|--------------------------|

--------------------------|--------------------------|
--------------------------|--------------------------|
--1--1--1--1--1--1--1--1--|--1--1--1--1--1--1--1--1--|
--------------------------|--------------------------|

--------------------------|--------------------------|
--------------------------|--------------------------|
--0--0--0--0--0--0--0--0--|--0--0--0--0--0--0--0--0--|
--------------------------|--------------------------|

                                                              Chorus
--------------------------|--------------------------|------------------------|
--------------------------|--------------------------|------------------------|
--------------------------|--------------3/-5--5/-7--|--5----5--5----5--5--5--|
--3--3--3--3--3--3--3--3--|--3--3--3--3--------------|------------------------|

------------------------|------------------------|------------------------|
------------------------|------------------------|------------------------|
--5----5--5----5--5--5--|--3----3--3----3--3--3--|--3----3--3----1--1--0--|
------------------------|------------------------|------------------------|

------------------------|------------------------|------------------------|
------------------------|------------------------|------------------------|
------------------------|------------------------|------------------------|
--3----3--3----3--3--3--|--3----3--3----3--3--4--|--6----6--6----6--6--6--|

------------------------|
------------------------|
--3----3--3----3--3--3--|
------------------------|

Intro

Verse

Chorus x2

After Chorus
---------------------|
---------------------|
--5--5--5------------|
---------------------|

Rest

|-----------------------|
|-----------------------|
|--5--5----5----5--5----|
|-----------------------|

Rest

|------------------------|
|------------------------|
|--5/---0--5/---0--5/-0--|
|------------------------|

Bridge x4
|-----------------|--------------------------|--------------------------|
|-----------------|--------------------------|--------------------------|
|-5-5-5-5-5-5-5-5-|--5--5--5--5--5--5--5--0--|--5--5--5--5--5--5--5--5--|
|-----------------|--------------------------|--------------------------|

--------------------------|--------------------------|
--------------------5--7--|--------------------------|
--7--7--7--8--8--8--------|--------------------------|
--------------------------|--6--6--6--6--6--6--6--6--|

--------------------------|--------------------------|
--------------------------|--------------------------|
--------------------------|--------------------------|
--6--6--6--6--6--6--6--6--|--3--3--3--3--3--3--3--3--|

--------------------------|
--------------------------|
--------------------------|
--5--5--5--5--6--6--6--6--|

Break
|-------------------|------------------|
|-------------------|------------------|
|--5----------------|------------------|
|-------------------|------------------|

------------------|------------------|-------------------|------------------|
------------------|------------------|-------------------|------------------|
------------------|------------------|--1----------------|------------------|
------------------|------------------|-------------------|------------------|

-------------------|--------------------||
-------------------|--------------------||
-------------------|-----------------3--||
--1----------------|--0-----------------||

Chorus x2

After Chorus
||------------------------|
||------------------------|
||--3----3--3----3--3--3--|
||------------------------|

Bridge x2

Outro Note
|-------------------|
|-------------------|
|--5----------------|
|-------------------|
            
Submit corrections

comments powered by Disqus
↑ Back to top | Sentenced Bass for Fragile. Lyrics for acoustic guitar and electric guitar. Tablatures and chords are parodies/interpretations of the original songs. You may use it for private study, scholarship, research or language learning purposes only