» » »

Farewell Bass tabs (ver.1)

Artists:  A B C D E F G H I J K L M N O P Q R S T U V W X Y Z # 

Farewell Bass tabs (ver.1)

Sentenced
Rating:
0/5 (0 votes)

Hard to play? Try these video lessons and learn fast.
                “Farewell” – Sentenced
Tune: D, G, C, F

Intro x2
|--------------------------------------------------------------------------------|
|--------------------------------------------------------------------------------|
|-0-0-0-0-0-0-0-0-0---------------------5-5-5-5-5-5-5-5-5-5----------------------|
|----------------------1-1-1-1-1-1-1-1---------------------------1-1-1-1-3-3-3-3-|

Verse x2
|-------------------------------------------------------------------------------|
|-------------------------------------------------------------------------------|
|-0-0-0-0-0-0-0-0-0-0-0-0-0-0-0-0--------------------------------------------3--|
|---------------------------------------0-1-1-1-1-1-1-1-1-1-1-1-1-1-1-1-1-1-----|

|--------------------------------------------------------------------------|
|-0-0-0-0-0-0-0-0-0-0-0-0-0-0-0-0------------------------------------------|
|--------------------------------------------------------------------------|
|----------------------------------------0-1-1-1-1-1-1-1-1-1-1-3-3-3-3-3-3-|

Pre-Chorus
|--------------------------------------------------------------------------|
|--------------------------------------------------------------------------|
|------------------5-5-5-5-5-3—5-5-3---3-2---------------------------------|
|1—1-1—1-1—1-------------------------------5-3---5-5-5---5-5-5---5-5-5---0-|

|-------------------------------------------------------------------------|
|-------------------------------------------------------------------------|
|------------------5-5-5-5-5-3—5-5-3--------------------------------------|
|1—1-1—1-1—1--------------------------0-0-0-0-0-0-0-0-0-0-1-1-0-0-3-3-0---|

Chorus (which is intro)

Verse

Pre-Chorus 

Chorus

Interlude
|-------------------------------------------------------------------------------------|
|-------------------------------------------------------------------------------------|
|-------------------------------------------------------------------------------------|
|-0-1-1-0-1-0-1-1-0~------0-1-1-0-1-0-3-1-0~----0-1-1-0-1-0-1-1-0~--0-1-1-0-1-1-1-1-0-|

|---------------------------|
|---------------------------|
|-----------------------0~--|
|-0-0-0-0-0-0-0-0-0---------|

Rest

Solo (play pre-chorus)
Chorus x6

Outro
|----------------------|
|----------------------|
|-0-0-0-0-0-0-0-0-0-0--|
|----------------------|
            
Hard to play? Try these video lessons and learn fast. | Correct




comments powered by Disqus
↑ Back to top | Tablatures and chords are parodies/interpretations of the original songs. You may use it for private study, scholarship, research or language learning purposes only