>
 >
Excuse Me While I Kill Myself

Excuse Me While I Kill Myself Guitar Tabs

Sentenced - Excuse Me While I Kill Myself chords, tabs, tablatures, lyrics

Guitar lessons | Add/correct | Request | Top 50 tabs Artists:  A B C D E F G H I J K L M N O P Q R S T U V W X Y Z 0-9

Excuse Me While I Kill Myself Guitar Tabs – Sentenced

CD, Sheet music, Poster

Do you like Excuse Me While I Kill Myself? Share with your friends now
Bass TabsChordsTabsUkulele
The top part is guitar 1,the bottom is guitar 2 except for the solo.
intro:
d|------------------------------|
A|------8-----------------------|
F|--7-9---7-9-10-7-10-9-7----7--| 
C|------------------------10----|
G|------------------------------|
D|------------------------------|
 |				
d|------------------------------|
A|------------------------------|
F|--7---------------------------|
C|--7---------------------------|
G|--5---------------------------|
D|------------------------------|



verse:
d|-------------------------------|
A|-------------------------------|
F|--7--9--10--9--7--10-9-7----7--| 
C|-------------------------10----|  
G|-------------------------------|
D|-------------------------------|
 |				 |
d|-------------------------------|
A|-------------------------------|
F|--7------------3---------------| 
C|--7------------3------------5--|  
G|--5------------1------------5--|
D|----------------------------3--|
 |				 |
d|-------------------------------|
A|------8------------------------|
F|--7-9---7-9-10-7-10-9-7----7---| 
C|------------------------10-----|
G|-------------------------------|
D|-------------------------------|


d|------------------------------------------|
A|------------------------------------------|
F|-7--9--10--9--7-----9-10-9-7----7-10-9-7--| 
C|-----------------10----------10-----------|  
G|------------------------------------------|
D|------------------------------------------|
 |					    |
d|------------------------------------------|
A|------------------------------------------|
F|------------------------------------------| 
C|-7----------------------------------------|  
G|-7----------------------------------------|
D|-5----------------------------------------|
 |				            |
d|------------------------------------------|
A|------8-----------------------------------|
F|--7-9---7-9-10-7-10-9-7----7--------------| 
C|------------------------10----------------|
G|------------------------------------------|
D|------------------------------------------|


d|-------------------------------------------|
A|-------------------------------------------|
F|-7--9--10--9--7----------------------------| 
C|-------------------------------------------|  
G|-------------------------------------------|
D|-------------------------------------------|
 |					     |
d|-------------------------------------------|
A|-------------------------------------------|
F|-7------------3----------------------------| 
C|-7------------3------------5------------7--|  
G|-5------------1------------5------------7--|
D|---------------------------3------------5--|
 |					     |
d|-------------------------------------------|
A|------8------------------------------------|
F|--7-9---7-9-10-7-10-9-7----7---------------| 
C|------------------------10-----------------|
G|-------------------------------------------|
D|-------------------------------------------|



chorus:  
d|--------------------------------------------|
A|-----------------------------------------10-|
F|--10-7-9-7-10-7-9-7-10-7-9-7-9----7-9-10----| 
C|--------------------------------8-----------|  
G|--------------------------------------------|
D|--------------------------------------------|
 |					      |
d|--------------------------------------------|
A|--------------------------------------------|
F|-7------------3-----------------------------| 
C|-7------------3------------5------------7---|
G|-5------------1------------5------------7---|
D|---------------------------3------------5---|


d|--------------------------------------------|
A|--------------------------------------------|
F|--10-7-9-7----7-9-7--10-7-9-7-10-7-9-7------| 
C|-----------10-------------------------------|  
G|--------------------------------------------|
D|--------------------------------------------|
 |					      |
d|--------------------------------------------|
A|--------------------------------------------|
F|-7------------3-----------------------------| 
C|-7------------3------------5------------7---|  
G|-5------------1------------5------------7---|
D|---------------------------3------------5---|



riff 1:
d|--------------------------------------------|
A|-----------------------------------------8--|
F|--10-7-9-7-10-7-9-7--10-7-9-7-9----7-9-10---|
C|--------------------------------10----------|
G|--------------------------------------------|
D|--------------------------------------------|

d|----------------------------------------|
A|----------------------------------------|
F|--10-7-9-7----7-9-7--10-7-9-7-10-7-9-7--|
C|-----------10---------------------------|
G|----------------------------------------|
D|----------------------------------------|



solo:
d|------------------------------------------8---------------------|
A|---------8----------------------8----8-10---11-11-10-8----8-10--|
F|--7-9-10---10-9-7-6-7-9--9-7-10---10-------------------10-------|
C|----------------------------------------------------------------|
G|----------------------------------------------------------------|
D|----------------------------------------------------------------|

d|------------------------------------------------------------|
A|------------------------------------------------------------|
F|--7-9-10-9-7-10-9----7--9-9-7----7-------------9-7-------7--|
C|------------------10----------10---10-7-10--10-----10-10----|
G|------------------------------------------------------------|
D|------------------------------------------------------------|

d|----------------------------------------------------------|
A|---------8-10h11-8-------10h11p10-8h10p10-----------------|
F|--7-9-10-----------9-9-------------------9h11p9-7h9p7-----|
C|-------------------------------------------------------7--|
G|----------------------------------------------------------|
D|----------------------------------------------------------|
   



outro:
d|----------------------------------------7--|
A|------8---------------------------8-----7--|
F|--7-9---7-9-10-7-10-9-7----7--7-9---7-9-5--| 
C|------------------------10-----------------| 
G|-------------------------------------------|
D|-------------------------------------------|
 |					     |
d|-------------------------------------------|
A|-------------------------------------------|
F|-7-----------------------------------------| 
C|-7-----------------------------------------|  
G|-5-----------------------------------------|
D|-------------------------------------------|





Comments


Popular Sentenced tabs & chords
Bleed 1 Bass Tabs
Blood And Tears Bass Tabs
Brief Is The Light Bass Tabs
Her Last 5 Minutes Bass Tabs
Konevitsan Kirkonkellot Bass Tabs
May Today Become The Day 2 Bass Tabs
No One There Bass Tabs
The Suicider Bass Tabs
Let Go Tabs
Warrior Of Life Tabs


Song lyrics



↑ Back to top | Tablatures and chords are parodies/interpretations of the original songs. You may use it for private study, scholarship, research or language learning purposes only
© 2014 AZChords.com Contact us | Privacy policy | DMCA | Add/correct tabs | Request tabs | Top 50 tabs