>
 >
Excuse Me While I Kill Myself

Excuse Me While I Kill Myself Bass Tabs

Sentenced - Excuse Me While I Kill Myself chords, tabs, tablatures, lyrics

Guitar lessons | Add/correct | Request | Top 50 tabs Artists:  A B C D E F G H I J K L M N O P Q R S T U V W X Y Z 0-9

Excuse Me While I Kill Myself Bass Tabs – Sentenced

CD, Sheet music, Poster

Do you like Excuse Me While I Kill Myself? Share with your friends now
Bass TabsChordsTabsUkulele
“Excuse Me While I Kill Myself” – Sentenced

Tuning: B, F, B, E

Intro
|----------------------------------------------------------------------------------|
|-----------------------------------------------------------------------3-1--------|
|----------------------------------------------------------------------------4-3-4-|
|-1---1---1---1---1---1---1---1---1---1---1---1---1-1-1-1-----1--------------------|

Verse
|------------------------------------------------------------------|
|-----3-----------5-----------6-------------5--------3-------------|
|-------------4-----------4------------4------------------4---3----|
|-4-------4-----------4-----------4-------------4----------------1-|

Fill 1
|----------------------------------------------------------------|
|----------------------------------------------------------------|
|--------------------------------------------------------4-3-4---|
|-1-1-1---1-1-1---1-1-1---1-1-1---1-1-1---1-1-1------------------|

|------------------------------------------------------------------------------1------------|
|-----3-----------5-----------6-------------5--------3------------------1----------1------1-|
|-------------4-----------4------------4---------------------4-------3----------------3-----|
|-4-------4-----------4-----------4-------------4-------4--------4---------4----------------|

|-----0------1-0-----|
|--------------------|
|-8------8---------1-|
|--------------------|

|-------------------------------------------------------------|
|-------3-----------5-----------6-------------5-------3-------|
|----4---------4-----------4------------4---------------------|
|-4-------4-----------4-----------4--------------4-------4--1-|

Fill 2
|----------------------------------------------------|
|----------------------------------------------------|
|----------------------------------------------------|
|-1-1-1---1-1-1---1-1-1---1-1-1---1-1-1---1-1-1------|

Pre-Chorus
|----------------------------------------------------------------|
|----------------------------------------1-1-1-1-1-1-1-1-1/------|
|-1-1-1-1-1-1-1-1-1-1-1-1-1-1-1-1-1------------------------------|
|-----------------------------;’---------------------------------|


Chorus
|--------------------------------------------------------------------------|
|--------------------------------------------------------2-3---2-3-5-6-5-3-|
|---------------1------1-1-1---------------3-3-3-3-3-----------------------|
|-1-1-1-1---1-----4----------4-4-4-4-4-------------------------------------|

|--------------------------------------------------------------------------------------|
|-----------6--------------1-------6---------------------------------------------------|
|--------------6-------1---------------------------------------------------------------|
|-4---4-4--------4-4----------4------4---4-4-4---4-4-4---1-1-1---1-1-1---1-1-1---1-1-1-|

|-3------------3-------------3-1--|-----------------6-----6-5---3-----------|
|---------------------------------|----------------------------------6---5--|
|----1-1-1-1-----1-1-1-1----------|-4-4-4-4-4-4--------4--------------------|
|---------------------------------|-----------------------------------------|

Repeat Bar 1 of Chorus

|----------------------|
|----3-3-3-3-3-3-3-----|
|----------------------|
|-1------------------1-|

Repeat all three bars of chorus until the first bracket

Verse

Fill 2

Interlude
|-------------------------------------------------------|
|---------------2-3---2-3-5-6-5-3-3-3-3-3-3-3-3-3-3-----|
|---3-3-3-3-3-------------------------------------------|
|-----------------------------------------------------1-|

Rest

Breakdown x3
|-----------------------------1------|
|-3-3----1-3-3---1-3-3----1-3----5-3-|
|------3-------3--------3------------|
|------------------------------------|

Breakdown Variation x1
|---------------------------3--1------|
|-3-3----1-3-3---1-3-3----1-------5-3-|
|-----3--------3--------3-------------|
|-------------------------------------|

Breakdown x3 then a half a breakdown

Chorus x3 then 

Outro
|-----------------------------------------------------------------------------------------------|
|--------------------------------------------------------2-3---2-3-5-6-5-3----------------------|
|----------------1-----1-1-1---------------3-3-3-3-3------------------------3-3-3-3-3-3-3-3-3-3-|
|-1-1-1-1---1-----4----------4-4-4-4-4----------------------------------------------------------|





Comments


Popular Sentenced tabs & chords
Drown Together Bass Tabs
Farewell Bass Tabs
The Suicider Bass Tabs
0132 Tabs
Cross My Heart And Hope To Die 2 Tabs
Farewell Tabs
Guilt And Regret Tabs
Keep My Grave Open Tabs
The Way I Wanna Go Tabs
When The Moment Of Death Arrives Tabs


Song lyrics



↑ Back to top | Tablatures and chords are parodies/interpretations of the original songs. You may use it for private study, scholarship, research or language learning purposes only
© 2014 AZChords.com Contact us | Privacy policy | DMCA | Add/correct tabs | Request tabs | Top 50 tabs