>
 >
Dead Moon Rising

Dead Moon Rising Bass Tabs

Sentenced - Dead Moon Rising chords, tabs, tablatures, lyrics

Guitar lessons | Add/correct | Request | Top 50 tabs Artists:  A B C D E F G H I J K L M N O P Q R S T U V W X Y Z 0-9

Dead Moon Rising Bass Tabs – Sentenced

CD, Sheet music, Poster

Do you like Dead Moon Rising? Share with your friends now
Bass TabsTabs
“Dead Moon Rising” – Sentenced Tuned (Drop B)

Start at 00:30
Verse
|--------------------------|------------------------|
|--------------------------|------------------------|
|--0--0--0--0--0--0--0--0--|--0--0--0--0--0--0--0--0|
|--------------------------|------------------------|

--------------------------|--------------------------|
--------------------------|--------------------0--2--|
--0--0--0--0--0--0--0--0--|--0--0--0--0--0--0--------|
--------------------------|--------------------------|

--------------------------|--------------------------|
--3--3--3--3--3--3--3--3--|--3--3--3--3--3--3--3--2--|
--------------------------|--------------------------|
--------------------------|--------------------------|

--------------------------|--------------------------|
--------------------------|--------------------------|
--0--0--0--0--0--0--0--0--|--0--0--0--0--0--0--0--0--|
--------------------------|--------------------------| x2

Pre-Chorus
--------------------------|--------------------------|
-----------------------1--|--1--1--1--1--1--1--1--3--|
--0--0--0--0--0--0--0-----|--------------------------|
--------------------------|--------------------------|

--------------------------|--------------------------|
--3--3--3--3--3--3--3--0--|--0--0--0--0--0--0--0--0--|
--------------------------|--------------------------|
--------------------------|--------------------------| x2

Chorus
--------------------------|--------------------------|
--------------------------|-----0--3--3--3--3--3--3--|
--0--0--0--0--0--0--0--0--|--0-----------------------|
--------------------------|--------------------------|

--------------------------|--------------------------|
--------------------------|--------------------------|
--------------------------|--------------------------|
--3--3--3--3--3--3--3--3--|--3--3--3--3--3--3--3--3--|

--------------------------|--------------------------|
--3--3--3--3--3--3--3--3--|--3--3--3--3--3--3--3--3--|
--------------------------|--------------------------|
--------------------------|--------------------------|

--------------------------|--------------------------|
--0--0--0--0--0--0--0--0--|--0--0--0--0--0--0--0--0--|
--------------------------|--------------------------|
--------------------------|--------------------------|

Verse x1
Pre-Chorus x1

Chorus x2

Break
------------------|-0-2--------------|----------0-2---------|
------------------|------------------|----------------------|
--0------0-0-0----|--------0-0-------|--0-0-0-------0-0-----|
------------------|------------------|----------------------|

Bridge
--------------------------|--------------------------|
-----------------------1--|--1--1--1--1--1--1--1--3--|
--0--0--0--0--0--0--0-----|--------------------------|
--------------------------|--------------------------|

--------------------------|--------------------------|
--3--3--3--3--3--3--3--0--|--0--0--0--0--0--0--0-----|
--------------------------|-----------------------0--|
--------------------------|--------------------------| x4

Chorus x5

Outro
|------------------------|----------------|
|-----7-------7-------7--|-------7/-------|
|--0-------0-------0-----|----0-----------|
|------------------------|----------------|





Comments


Popular Sentenced tabs & chords
Cross My Heart & Hope To Die Bass Tabs
Killing Me Killing You Bass Tabs
Konevitsan Kirkonkellot Bass Tabs
Neverlasting Bass Tabs
Warrior Of Life Bass Tabs
Home In Despair Tabs
I´Ll Throw The First Rock Tabs
Lower The Flags Tabs
One With Misery Tabs
Shadegrown Tabs


Song lyrics



↑ Back to top | Tablatures and chords are parodies/interpretations of the original songs. You may use it for private study, scholarship, research or language learning purposes only
© 2014 AZChords.com Contact us | Privacy policy | DMCA | Add/correct tabs | Request tabs | Top 50 tabs