>
 >
Dance On The Graves

Dance On The Graves Guitar Tabs

Sentenced - Dance On The Graves chords, tabs, tablatures, lyrics

Guitar lessons | Add/correct | Request | Top 50 tabs Artists:  A B C D E F G H I J K L M N O P Q R S T U V W X Y Z 0-9

Dance On The Graves Guitar Tabs – Sentenced

CD, Sheet music, Poster

Do you like Dance On The Graves? Share with your friends now
Tabs
Sentenced
Dance On The Graves 
Down Ĺ Step Tuning
I have been working on this tab for a long time now and this is what I got so far
Iím working on a guitar pro tab but cant get the tempo and notes quite in sync
Please be patient for the guitar pro tab!!!
I donít know the solo, if anyone knows it please send it to me my email is 

INTRO GTR 2                                       |Start FILL 1 
|------------------------|------------------------|-------------------------|
|------------------------|------------------------|-------------------------|
|------------------------|------------------------|-------------------------|
|-5-5--2-2--5-5--2-2--2-2|-2-2--2-2--4-4--4-4--4-4|-5-5--2-2--5-5--2-2--2-2-| 
|-7-7--2-2--7-7--2-2--2-2|-3-3--3-3--5-5--5-5--5-5|-7-7--2-2--7-7--2-2--2-2-| 
|------0-0-------0-0--0-0|------------------------|------0-0-------0-0--0-0-| 
  . .  . .  . .  . .  . .  . .  . .  . .  . .  . .  . .  . .  . .  . .  . .  
  
|-------------------------| 
|-------------------------| 
|-------------------------| GTR 2 
|-2-2--2-2--4-4--4-4--4-4-| 
|-3-3--3-3--5-5--5-5--5-5-| 
|-------------------------| 
  . .  . .  . .  . .  . . 
 
 
FILL 1 
|--------------------------------|-----------------------| 
|--------------------------12-12-|---15------------------| 
|-------12-----------------12-12-|---14fb-12-------------|GTR 1 
|-12h14-----14p12h14~------------|-----------------------|w/wah wah 
|--------------------------------|-----------13p12p10----| 
|--------------------------------|--------------------12-| 
 
 
RIFF 1 GTR 1
|-------------------------|------------------------|------------------------| 
|-------------------------|------------------------|------------------------| 
|-------------------------|------------------------|------------------------| 
|---5---------5-----------|--2----2----4----4----4-|---5---------5----------| 
|-77-----7--77-----7----7-|33---33---55---55---55-5|-77-----7--77-----7----7| 
|------77--------77---77-7|------------------------|------77--------77---77-| 
| ...  ...  ...  ...  ... |...  ...  ...  ...  ... | ...  ...  ...  ...  ...|  | 
|                                                                              |GTR 2 
|-------------------------|------------------------|------------------------| 
|-------------------------|------------------------|------------------------| 
|-------------------------|------------------------|------------------------|
|-5-5--2-2--5-5--2-2--2--2|2-2--2-2--4-4--4-4--4--4|5-5--2-2--5-5--2-2--2--2| 
|-7-7--2-2--7-7--2-2--2--2|3-3--3-3--5-5--5-5--5--5|7-7--2-2--7-7--2-2--2--2| 
|------0-0-------0-0--0--0|------------------------|-----0-0-------0-0--0--0| 
  . .  . .  . .  . .  .  . . .  . .  . .  . .  .  . . .  . .  . .  . .  .  .    
 
 
|------------------------------| 
|------------------------------| 
|-------------/7-5-4-----------|GTR 1 
|---2----2-----------7-5-4-5-7-| 
|-33---33---3------------------| 
|------------------------------| 
| ...  ...  .                  | 
|                              | 
|------------------------------| 
|------------------------------| 
|-------------/4---------------|GTR 2 
|-2-2--2-2--2----7-5-4-------4-| 
|-3-3--3-3--3----------7-6-7---| 
|------------------------------| 
  . .  . .  
 
RIFF 2                                                 
|----------------------------------------------------| 
|-------------------------------------%=10-----------| 
|-4-------4------------------------------------------|GTR 1 
|-----5-------5---4--/777-5--/9---7---%%%%%%99997777-| 
|----------------------------------------------------| 
|----------------------------------------------------| 
|                      ..             .............. | 
|                                                    | 
|----------------------------------------------------| 
|----------------------------------------------------| 
|----------------------------------------------------|GTR 2 
|-5---2--/5---2---0--/4---2--/5---4---77777755554444-| 
|----------------------------------------------------| 
|----------------------------------------------------| 
                                      ..............     
 
 
|-----------------------------------------------------| 
|--------------------------------------%=10-----------| 
|-4-------4hr-----------------------------------------|GTR 1 
|-----5--------5---4--/777-5--/9---7---%%%%%%99997777-| 
|-----------------------------------------------------| 
|-----------------------------------------------------| 
|         ^             ..             .............. | 
|                                                     | 
|-----------------------------------------------------| 
|-----------------------------------------------------| 
|-----------------------------------------------------|GTR 2 
|-5---2---/5---2---0--/4---2--/5---4---77777755554444-| 
|-----------------------------------------------------| 
|-----------------------------------------------------| 
                                 ...............       
 
RIFF 3 
|---------------------------------|----------------------------------| 
|-----------------------------3---|-------3------------------5-------| 
|-5-----4-----2-----4-----5---2---|-----0-------0--------0-----0-----|GTR 1 
|-2-----2-----2-----2-----2-------|---2-------2---2----4---------4---| 
|-0-0-0-0-0-0-0-0-0-0-0-0-0-0---0-|-3-------3-------/5-----5-------5-| 
|---------------------------------|----------------------------------| 
|   . .   . .   . .   . .   .   . | . .     .        . .   .         | 
|                                 |                                  | 
|---------------------------------|----------------------------------| 
|---------------------------------|----------------------------------| 
|/5-----4-----------4-----5---7---|/9-----7-----5-----4------------4-|GTR 2 
|-------------7-------------------|--------------------------7-------| 
|---------------------------------|----------------------------------| 
|---------------------------------|----------------------------------| 
 
Repeat RIFF 3 
 
 
RIFF 4 
|----------------------------|----------------------------| 
|----------------------------|----------------------------| 
|----------------------------|----------------------------|GTRS 1&2 
|-5-5--2-2--5-5--2-2--2-2--2-|-2-2--2-2--4-4--4-4--4-4--4-| 
|-7-7--2-2--7-7--2-2--2-2--2-|-3-3--3-3--5-5--5-5--5-5--5-| 
|------0-0-------0-0--0-0--0-|----------------------------| 
  . .  . .  . .  . .  . .  .   . .  . .  . .  . .  . .  . 
 
Repeat RIFF 4 
 
RIFF 3  2x 

RIFF 5 
GTRS1&2
|-----------------|-----------------|-----------------|-----------------| 
|-----------------|-----------------|-----------------|-----------------| 
|-----------------|-----------------|-----------------|-----------------|
|-----------------|-----------------|-----------------|-----------------| 
|---2-3---2-3---2-|---5-3---2-3---5-|-0-7-5-0-2-3-0-5-|-0-7-5-0-2-0-3-5-| 
|-0-----0-----0---|-3-----3-----3---|-----------------|-----------------| 
  . . . . . . . .   . . . . . . . .   . . . . . . . .   . . . . . . . . 
 
Repeat RIFF 5 
 
 
RIFF 4  2x 
RIFF 3  2x 
 
 
RIFF 6 (Acoustic)
|-----------------|----------------|-----------------|----------------| 
|---------0-------|-------0--------|---------0-------|-------0--------| 
|-----0-----0---0-|-----0-----0----|-----0-----0---0-|-----0-----0----|GTR 1 
|---4---4-----4---|---4---------4--|---4---4-----4---|---4---------4--| 
|-2---------------|-2-------2------|-3---------------|-0-------0------| 
|-----------------|----------------|-----------------|----------------| 
|                 |                |                 |                | 
|-----------------|----------------|-----------------|----------------| 
|-----------------|----------------|-----------------|----------------| 
|--4~-------------|-4h5p4~---------|-5~--------------|-2~-------------|GTR 2 
|-----------------|----------------|-----------------|----------------| 
|-----------------|----------------|-----------------|----------------| 
|-----------------|----------------|-----------------|----------------| 
 
 (Acoustic) 
|-----------------|----------------|-----------------|----------------| 
|---------0-------|-------0--------|---------0-------|----------------| 
|-----0-----0---0-|-----0-----0----|-----0-----0-----|-----0-------0--|GTR 1 
|---4---4-----4---|---4---------4--|---4---4-----4---|---4-------4----|
|-2---------------|-2-------2------|-3-------------3-|-5-------6------| 
|-----------------|----------------|-----------------|----------------| 
|                 |                |                 |                | 
|-----------------|----------------|-----------------|----------------| 
|-----------------|----------------|-----------------|----------------| 
|-/4~-------------|-4h5p4~---------|-5~--------------|-7-------8------|GTR 2 
|-----------------|----------------|-----------------|----------------| 
|-----------------|----------------|-----------------|----------------| 
|-----------------|----------------|-----------------|----------------| 
 
 
RIFF 7-1 
|-----------------|-----------------|------------------------------| 
|-----------------|-----------------|------------------------------| 
|-----------------|-----------------|------------------------------|GTRS 1&2 
|---------------0-|-----------------|------------------------------| 
|-2--2-----2----0-|-5--5-----5----5-|/7--7-----7---5-7--7----------| 
|-0--0-00000-00---|-3--3-33333-33-3-|/5--5-55555-555-5--5-555555-3-| 
       ....  ..          ....  ..          ....  ..       ...... * bend up 
 
Repeat RIFF 7-1 

RIFF 7-2 
|-----------------|-----------------|--------------------------------| 
|-----------------|-----------------|--------------------------------| 
|-----------------|-7--7-----7---7--|/9--9---7-9---10-9--9---9-7---9-|GTR 1 
|-9--9---7-9---9--|-5--5-55555-555--|/7--7-775-7-77-7-7--7-777-7-777-| 
|-7--7-777-7-777--|-----------------|--------------------------------| 
|-----------------|-----------------|--------------------------------| 
|      ..    ..   |      ....  ..   |      ..    ..        ..    ..  | 
|                 |                 |                                | 
|-----------------|-----------------|--------------------------------| 
|-----------------|-----------------|--------------------------------| 
|-----------------|-----------------|--------------------------------|GTR 2 
|---------------0-|-----------------|--------------------------------| 
|-2--2-----2----0-|-5--5-----5----5-|/7--7-----7---5-7--7------------| 
|-0--0-00000-00---|-3--3-33333-33-3-|/5--5-55555-555-5--5-555555-3---| 
       ....  ..          ....  ..          ....  ..       ...... * bend up 
 
Repeat RIFF 7-2 
 
 
RIFF 8 (really hard to hear but try it, it will sound good) GTR 1 
|-------0----|--------0---|--------0---|------------------------------------| 
|-------3----|--------2---|--------3---|----15p14----17p14----15p14----17p14| 
|-------1----|-----0------|--------1---|------------------------------------|
|----0-------|---2--------|-----0------|-14-------14-------14-------14------| 
|--2---------|-0----------|---2--------|------------------------------------| 
|0-----------|------------|-0----------|------------------------------------| 
 
 GTR 1 
|-------------|--------0----|--------0----|-----------------|--------0----| 
|----15p14----|--------3----|--------2----|-x-2-x-0-x-2-x-0-|--------3----| 
|----------14-|--------1----|-----0-------|-x-0-x-0-x-0-x-0-|--------1----|
|-14----------|-----0-------|---2---------|-----------------|-----0-------| 
|-------------|---2---------|-0-----------|-----------------|---2---------| 
|-------------|-0-----------|-------------|-----------------|-0-----------| 
 
 
|-------------------------------------------------| 
|----15p14----17p14----15p14----17p14----15p14----| 
|----------------------------------------------14-|GTR 1 
|-14-------14-------14-------14-------14----------| 
|-------------------------------------------------| 
|-------------------------------------------------| 
 
 
I still canít get the stupid solo, please anyone who can figure out the solo 
please send me it!!!!!!





Comments


Popular Sentenced tabs & chords
Bleed Bass Tabs
Funeral Spring Bass Tabs
Nepenthe Bass Tabs
Nepenthe 2 Bass Tabs
Vengeance Is Mine Chords
Farewell Tabs
Let Go Tabs
Sun Won Shine Tabs
The Suicider Tabs
The Truth Tabs


Song lyrics



↑ Back to top | Tablatures and chords are parodies/interpretations of the original songs. You may use it for private study, scholarship, research or language learning purposes only
© 2014 AZChords.com Contact us | Privacy policy | DMCA | Add/correct tabs | Request tabs | Top 50 tabs