» » »

Sentenced, Consider Us Dead Tabs (ver.1)

Artists:  A B C D E F G H I J K L M N O P Q R S T U V W X Y Z # 

Consider Us Dead Tabs (ver.1)

Sentenced Tabs
 Rating:
4.2/5 (5 votes)
Consider Us Dead lessons Tabs too difficult? Try these video lessons and learn fast
                Sentenced - Consider Us Dead

Guitar 1 - Intro x2
E-------------|-----------------|--------------|-----------------|
B-8-7-8-7-8-7-|-7h8p7-----------|-8-7-8-8-10-7-|-7h8p7-----------|
G-------------|-------7-9-7-9---|--------------|-------7-9-7-9-5-|
D-------------|---------------9-|--------------|-----------------|
A-------------|-----------------|--------------|-----------------|
E-------------|-----------------|--------------|-----------------|
                                                       Let ring for 2nd time
E----------------|------------|------------------|------------------|   /
B-10-8-10-10-12-8|-7-8-7------|-13-12-13-12-13-12|-10-8-7---8-7-----|  /
G----------------|-------9-7-9|------------------|--------7-----7-\9| /
D----------------|------------|------------------|-----------------\|/
A----------------|------------|------------------|------------------|
E----------------|------------|------------------|------------------|
 
Guitar 2 - Intro x2
                  _____________  _______________
                  |1             |2
E-----------------|------------  |-------------|------------------------|
B-----------------|------------  |-------------|------------------------|
G-----------------|------------  |-------------|------------------------|
D-----------------|------------  |-5-5-5-------|-5-5-5-5-5-4-4-4-7-7-7-7|
A-2-2-2-2-0-0-0-0-|-2-2-2-2-0-0  |-3-3-3-------|-3-3-3-3-3-3-3-3-3-3-3-3|
E-0-0-0-0-2-2-2-2-|-3-3-3-3-2-2  |--------3-2-0|------------------------|
 
E-----------------|------------|
B-----------------|------------|
G-----------------|------------|
D-5-5-2-2-2-2-4-4-|------------|
A-3-3-0-0-0-0-3-3-|-5-5-5-5-5-5|
E-----------------|-3-2-0-2-3-2|
 
                                    __________________________  
Verse x2                            |1
E-----------|-----------|-----------|-----------|-----------|
B-----------|-----------|-----------|-----------|-----------|
G-----------|-----------|-----------|-----------|-----------|
D-----------|-----------|-----------|-----------|-----------|
A-2-2-2-2-2-|-0-0-0-0-0-|-2-2-2-2-2-|-0-0-0-0-0-|-----2-0-5-|
E-0-0-0-0-0-|-2-2-2-2-2-|-0-0-0-0-0-|-2-2-2-2-2-|-0-0-0-2-3-|
  . . . . .   . . . . .   . . . . .   . . . . .   . .
____________
|2
E-----------|
B-----------|
G-----------|
D-----------|
A-0-0-0-0-0-|
E-2-2-2-2-2-|
  . . . . .
 
Pre-chorus
E-----------------------|---------------------|------------|
B-----------------------|---------------------|------------|
G-----------------------|---------------------|------------|
D-7-7-7-7-7-7-7-7-7-7-7-|-7-7-7-7-5-5-5-5-5-5-|-5-5-5-7-9-7|
A-5-5-5-5-5-5-5-5-5-5-5-|-5-5-5-5-3-3-3-3-3-3-|-3-3-3-5-7-5|
E-----------------------|---------------------|------------|
                            (pick slide)            . . .
E------------|---------------------------|---------------|
B------------|---------------------------|---------------|
G------------|---------------------------|---------------|
D-7-7-7-7-7-7|-/9-7-5-4-2////////////////|---------------|
A-5-5-5-5-5-5|-----------////////////////|-5-----5-----5-|
E------------|---------------------------|-3-3-3-2-2-2-2-|
                                             . .   . .
 
Chorus x2
                  _____________  _______________
                  |1             |2
E-----------------|------------  |-------------|------------------------|
B-----------------|------------  |-------------|------------------------|
G-----------------|------------  |-------------|------------------------|
D-----------------|------------  |-5-5-5-------|-5-5-5-5-4-4-4-4-7-7-7-7|
A-2-2-2-2-0-0-0-0-|-2-2-2-2-0-0  |-3-3-3-------|-3-3-3-3-3-3-3-3-3-3-3-3|
E-0-0-0-0-2-2-2-2-|-3-3-3-3-2-2  |--------3-2-0|------------------------|
 
E-----------------|------------|
B-----------------|------------|
G-----------------|------------|
D-5-5-2-2-2-2-4-4-|------------|
A-3-3-0-0-0-0-3-3-|-5-5-5-5-5-5|
E-----------------|-3-2-0-2-3-2|
 
Verse x2
Chorus x2
 
Interlude
E-------------------------------------------------|
B-------------------------------------------------|
G-------------------------------------------------|
D-5---------5-5-----------5-5----------5-5-5-5-5-5|
A-3---------3-3-----------3-3----------3-3-3-3-3-3|
E-------------------------------------------------|
 
Solo (Guitar 2 playing Verse riff)
E--------------------------|-------------------------------------|
B--------10p9--9-10p9-10/12|-12p10p9-10-9h10p9-------------------|
G-10-9h10----10------------|-------------------10-9-13-10-9---10-|
D--------------------------|--------------------------------12---|
A--------------------------|-------------------------------------|
E--------------------------|-------------------------------------|
 
E---------12-13-16-13-12-13-|-16-13-12h13p12--------------------------------|
B---------------------------|---------------15-13-12-13-15-13-12-13-15-15b17|
G---------------------------|-----------------------------------------------|
D-12-10-9-------------------|-----------------------------------------------|
A---------------------------|-----------------------------------------------|
E---------------------------|-----------------------------------------------|
 
E-------------|-19-16h17p16----17-16h17p16-|----16h17p16----17-16-17-19-17-|
B-17b15-13-12-|-------------18-------------|-18----------18----------------|
G-------------|----------------------------|-------------------------------|
D-------------|----------------------------|-------------------------------|
A-------------|----------------------------|-------------------------------|
E-------------|----------------------------|-------------------------------|

E-17h19p16-17-16-16----|-16h17p16-16h17p16-19p17p16-19p17p16-|
B-------------------18-|-------------------------------------|
G----------------------|-------------------------------------|
D----------------------|-------------------------------------|
A----------------------|-------------------------------------|
E----------------------|-------------------------------------|

E-17h19p17p16-17h19p17p16-|-16h17h19p17p16-16h17h19p17p16|
A-------------------------|------------------------------|
G-------------------------|------------------------------|
D-------------------------|------------------------------|
A-------------------------|------------------------------|
E-------------------------|------------------------------|

E-16h17h19p17p16-16h17h19p17p16-|-13-12----------------|
A-------------------------------|-------15-13-12-------|
G-------------------------------|----------------14-14-|
D-------------------------------|----------------------|
A-------------------------------|----------------------|
E-------------------------------|----------------------|

Pre Chorus
Chorus x2



That's it! This is my first tab ever, so I hope you like it!
            
Submit corrections

comments powered by Disqus
↑ Back to top | Sentenced Tabs for Consider Us Dead. Lyrics for acoustic guitar and electric guitar. Tablatures and chords are parodies/interpretations of the original songs. You may use it for private study, scholarship, research or language learning purposes only