>
 >
Aika Multaa Muistot (Everything Is Nothing)

Aika Multaa Muistot (Everything Is Nothing) Guitar Tabs

Sentenced - Aika Multaa Muistot (Everything Is Nothing) chords, tabs, tablatures, lyrics

Guitar lessons | Add/correct | Request | Top 50 tabs Artists:  A B C D E F G H I J K L M N O P Q R S T U V W X Y Z 0-9

Aika Multaa Muistot (Everything Is Nothing) Guitar Tabs – Sentenced

CD, Sheet music, Poster

Do you like Aika Multaa Muistot (Everything Is Nothing)? Share with your friends now
Bass TabsTabs
Aika multaa muistot (Everything Is Nothing)                   

THIS IS NOT MY WORK.  CREDIT GOES TO JOPE, TBW AND KLMM01.  I SIMPLY TOOK FROM GUITAR PRO.



     W                   W                   W                 
E||-------------------|-------------------|-------------------|
B||-------------------|-------------------|-------------------|
G||-------------------|-------------------|-------------------|
D||-------------------|-------------------|-------------------|
A||-------------------|-------------------|-------------------|
E||-------------------|-------------------|-------------------|


   ^                                                    
   E  E  E   E  E  E  E  E     E  E  E  E  E  E  E  E   
--10--------10--------8-----|--5--------5--------3-----|
---6---------------------6--|-----3--------3--------3--|
---7-----7---------7--------|--------3--------3--------|
---0--0---------0-----------|--------------------------|
----------------------------|--------------------------|
----------------------------|--------------------------|


                                                  ^                         
  E  E  E  E  E  E  E  E     W                    E  E  E   E  E  E  E  E   
--3-----------------------|-------------------|--10--------10--------8-----|
-----3-----3--------------|-------------------|---6---------------------6--|
--------0-----0-----0-----|-------------------|---7-----7---------7--------|
-----------------2-----2--|-------------------|---0--0---------0-----------|
--------------------------|--3----------------|----------------------------|
--------------------------|-------------------|----------------------------|


  E  E  E  E  E  E  E  E     E  E  E  E  E  E  E  E     W                 
--5--------5--------3-----|--3-----------------------|-------------------|
-----3--------3--------3--|-----3-----3--------------|-------------------|
--------3--------3--------|--------0-----0-----0-----|-------------------|
--------------------------|-----------------2-----2--|-------------------|
--------------------------|--------------------------|--3----------------|
--------------------------|--------------------------|-------------------|


                        Everything is nothing to me...                       
  W                     E                              E  E  E  E  E  E  E   
-------------------||----------------------------------------1--0-----------|
-------------------||-------------------------------------3--------3--------|
-------------------||*---------------------------------2--------------2-----|
-------------------||*--0------------------------------------------------0--|
--L----------------||-------------------------------------------------------|
-------------------||-------------------------------------------------------|


  E  E  E  Q.     Q       E  E  E  E  E  E  E  E     W                 5x
-----------0------L----|--------------0-----------|--------------------||
-----------------------|-----------3-----3--------|--------------------||
--------2--------------|--------0-----------0-----|-------------------*||
-----3-----------------|-----2-----------------2--|-------------------*||
--1--------------------|--3-----------------------|--3-----------------||
-----------------------|--------------------------|--------------------||


  E  E  E  E  E  E  E  E     E  E  E  Q.     Q       E  E  E  E  E  E  E  E   
-----------1--0-----------|-----------0------L----|--------------0-----------|
--------3--------3--------|-----------------------|-----------3-----3--------|
-----2--------------2-----|--------2--------------|--------0-----------0-----|
--0--------------------0--|-----3-----------------|-----2-----------------2--|
--------------------------|--1--------------------|--3-----------------------|
--------------------------|-----------------------|--------------------------|


  W                   E  E  E  E  E  E  E  E     E  E  E  Q.     Q     
-------------------|-----------1--0-----------|-----------0------L----|
-------------------|--------3--------3--------|-----------------------|
-------------------|-----2--------------2-----|--------2--------------|
-------------------|--0--------------------0--|-----3-----------------|
--3----------------|--------------------------|--1--------------------|
-------------------|--------------------------|-----------------------|


  E  E  E  E  E  E  E  E     W                   E  E  E  E  E  E  E  E   
--------------0-----------|-------------------|-----------1--0-----------|
-----------3-----3--------|-------------------|--------3--------3--------|
--------0-----------0-----|-------------------|-----2--------------2-----|
-----2-----------------2--|-------------------|--0--------------------0--|
--3-----------------------|--3----------------|--------------------------|
--------------------------|-------------------|--------------------------|


  E  E  E  Q.     Q       E  E  E  E  E  E  E  E     W                 
-----------0------L----|--------------0-----------|-------------------|
-----------------------|-----------3-----3--------|-------------------|
--------2--------------|--------0-----------0-----|-------------------|
-----3-----------------|-----2-----------------2--|-------------------|
--1--------------------|--3-----------------------|--3----------------|
-----------------------|--------------------------|-------------------|


  E  E  E  E  E  E  E  E     E  E  E  Q.     Q       E  E  E  E  E  E  E  E   
-----------1--0-----------|-----------0------L----|--------------0-----------|
--------3--------3--------|-----------------------|-----------3-----3--------|
-----2--------------2-----|--------2--------------|--------0-----------0-----|
--0--------------------0--|-----3-----------------|-----2-----------------2--|
--------------------------|--1--------------------|--3-----------------------|
--------------------------|-----------------------|--------------------------|


  W                   E  E  E  E  E  E  E  E     E  E  E  Q.     Q     
-------------------|-----------1--0-----------|-----------0------L----|
-------------------|--------3--------3--------|-----------------------|
-------------------|-----2--------------2-----|--------2--------------|
-------------------|--0--------------------0--|-----3-----------------|
--3----------------|--------------------------|--1--------------------|
-------------------|--------------------------|-----------------------|


  E  E  E  E  E  E  E  E     W                   E  E  E  E  E  E  E  E   
--------------0-----------|-------------------|-----------1--0-----------|
-----------3-----3--------|-------------------|--------3--------3--------|
--------0-----------0-----|-------------------|-----2--------------2-----|
-----2-----------------2--|-------------------|--0--------------------0--|
--3-----------------------|--3----------------|--------------------------|
--------------------------|-------------------|--------------------------|


  E  E  E  Q.     Q       E  E  E  E  E  E  E  E     W                 
-----------0------L----|--------------0-----------|-------------------|
-----------------------|-----------3-----3--------|-------------------|
--------2--------------|--------0-----------0-----|-------------------|
-----3-----------------|-----2-----------------2--|-------------------|
--1--------------------|--3-----------------------|--3----------------|
-----------------------|--------------------------|-------------------|


  E  E  E  E  E  E  E  E     E  E  E  Q.     Q       E  E  E  E  E  E  E  E   
-----------1--0-----------|-----------0------L----|--------------0-----------|
--------3--------3--------|-----------------------|-----------3-----3--------|
-----2--------------2-----|--------2--------------|--------0-----------0-----|
--0--------------------0--|-----3-----------------|-----2-----------------2--|
--------------------------|--1--------------------|--3-----------------------|
--------------------------|-----------------------|--------------------------|


  W                   E  E  E  E  E  E  E  E     E  E  E  E  E  E  E  E   
-------------------|-----------------------1--|--------------------------|
-------------------|-----3--------------------|--------------------------|
-------------------|--------2--3-----2--------|-----2-----3-----2-----2--|
-------------------|--0-----------0-----0-----|--0-----0-----0-----0-----|
--3----------------|--------------------------|--------------------------|
-------------------|--------------------------|--------------------------|


  E  E  E  E  E  E  E  E     E  E  E  E  E  E  E  E   
-----------------------1--|--------------------------|
-----3--------------------|--------------------------|
--------2--3-----2--------|-----2-----3-----2-----2--|
--0-----------0-----0-----|--0-----0-----0-----0-----|
--------------------------|--------------------------|
--------------------------|--------------------------|


  E  E  E  E  E  E  E  E     E  E  E  E  E  E  E  E   
-----------1-----------1--|--L-----------------------|
-----3--------------------|--------------------------|
--------2-----2--3--2-----|-----2-----3-----2-----2--|
--0-----------------------|--0-----0-----0-----0-----|
--------------------------|--------------------------|
--------------------------|--------------------------|


  E  E  E  E  E  E  E  E     E  E  E  E  E  E  E  E   
-----------0-----------0--|--------------------------|
-----3-----------3--------|-----------3--------------|
--------0-----0-----0-----|-----0-----------0-----0--|
--------------------------|--------------------------|
--3-----------------------|--3-----3-----3-----3-----|
--------------------------|--------------------------|


  E  E  E  E  E  E  E  E     E  E  E  E  E  E  E  E     S S E  E  Q.     Q     
-----------------------0--|--------------------------|------------3------L----|
-----------3--------------|-----------3--------------|------3-----------------|
-----3-----------3--------|-----------------3-----3--|---------3--------------|
--------3-----------------|-----3--------------------|--3-5-------------------|
--1-----------1-----1-----|--1-----1-----1-----1-----|------------------------|
--------------------------|--------------------------|------------------------|


  W                   E  E  E  E  E  E  E  E     E  E  E  E  E  E  E  E   
--L----------------|-----------1-----------1--|--------------------------|
-------------------|-----3--------------------|--------------------------|
-------------------|--------2-----2--3--2-----|-----2-----3-----2-----2--|
-------------------|--0-----------------------|--0-----0-----0-----0-----|
-------------------|--------------------------|--------------------------|
-------------------|--------------------------|--------------------------|


  E  E  E  E  E  E  E  E     E  E  E  E  E  E  E  E   
-----------0-----------0--|--------------------------|
-----3-----------3--------|-----------3--------------|
--------0-----0-----0-----|-----0-----------0-----0--|
--------------------------|--------------------------|
--3-----------------------|--3-----3-----3-----3-----|
--------------------------|--------------------------|


  E  E  E  E  E  E  E  E     E  E  E  E  E  E  E  E   
-----------------------0--|--------------------------|
-----------3--------------|-----------3--------------|
-----3-----------3--------|-----------------3-----3--|
--------3-----------------|-----3--------------------|
--1-----------1-----1-----|--1-----1-----1-----1-----|
--------------------------|--------------------------|


                             T  T        T  T                                  
  E  E  E  E  E  E  E  E     E  E  E  E  E  E  E  E     Q    Q    E  E  E  E   
--------------------------|--------------------------|------------------------|
-----------3-----------2--|--------------------------|------------------------|
-----2-----------2--------|--------------------------|--7----7----x--x-----x--|
--------2-----------------|--7--7--7--5--7--7--7--5--|--7----7----x--x--x--x--|
--0-----------0-----0-----|--5--5--5--3--5--5--5--3--|--5----5----x--x-----x--|
--------------------------|--------------------------|------------------------|


  Q    Q    E  E  E  E     Q    Q    E  E  E  E     Q    E  E  E  E   Q     
------------------------|------------------------|-------------------------|
------------------------|------------------------|-------------------------|
--5----5----x--x-----x--|------------------------|-------------------------|
--5----5----x--x--x--x--|--5----5----x--x-----x--|--7----7--7--5--7--------|
--3----3----x--x-----x--|--5----5----x--x--x--x--|--5----5--5--3--5--------|
------------------------|--3----3----x--x-----x--|-------------------10----|


  Q    Q    Q    E  E     Q    Q    Q    E  E     E  E  Q    Q    E  E   
-----------------------|-----------------------|------------------------|
-----------------------|-----------------------|------------------------|
-----------------------|-----------------------|------------------------|
-----------------------|-----------------------|------------------------|
--8----8----8----8--8--|--8----5----5----5--5--|--5--7--7----7----7--7--|
--6----6----6----6--6--|--6----3----3----3--3--|--3--5--5----5----5--5--|


  E  E  E  E  E  E  E  E     Q    Q    E  E  E  E     Q    Q    E  E  E  E   
--------------------------|------------------------|------------------------|
--------------------------|------------------------|------------------------|
--------------------------|--7----7----x--x-----x--|--5----5----x--x-----x--|
--------------------------|--7----7----x--x--x--x--|--5----5----x--x--x--x--|
--7--7--7--7--7--7--7--7--|--5----5----x--x-----x--|--3----3----x--x-----x--|
--5--5--5--5--5--5--5--5--|------------------------|------------------------|


  Q    Q    E  E  E  E     Q    E  E  E  E   Q       Q    Q    Q    E  E   
------------------------|-------------------------|-----------------------|
------------------------|-------------------------|-----------------------|
------------------------|-------------------------|-----------------------|
--5----5----x--x-----x--|--7----7--7--5--7--------|-----------------------|
--5----5----x--x--x--x--|--5----5--5--3--5--------|--8----8----8----8--8--|
--3----3----x--x-----x--|-------------------10----|--6----6----6----6--6--|


  Q    Q    Q    E  E     E  E  Q    Q    E  E     E  E  E  E  E  E  E  E   
-----------------------|------------------------|--------------------------|
-----------------------|------------------------|--------------------------|
-----------------------|------------------------|--------------------------|
-----------------------|------------------------|--------------------------|
--8----5----5----5--5--|--5--7--7----7----7--7--|--7--7--7--7--7--7--7--7--|
--6----3----3----3--3--|--3--5--5----5----5--5--|--5--5--5--5--5--5--5--5--|


   H.            E   E      E   E   Q      E   E   E   E   
------------------------|---------------------15--15--12--|
--15~------------L--17--|--18--17--15~----15--------------|
------------------------|---------------------------------|
------------------------|---------------------------------|
------------------------|---------------------------------|
------------------------|---------------------------------|


                                              Slide down     
   E   E   E   E   E   E   E   E      E   E   H.             
--13--12--------------------------|-------------------------|
----------15----------------------|-------------------------|
--------------14--12----------12--|-------------------------|
----------------------15--14------|--15--14--12~------------|
----------------------------------|-------------------------|
----------------------------------|-------------------------|


   Q.        S  S  Q.       S  S     S  S  Q      S  S  E   E   E   E   
---------------------------------|-------------------------------------|
---------------------------------|-------------------------------------|
--16br---------------------------|-------------------------------------|
--17br------17-15-17~------15----|--15-17-17b----17----17--15--15--14--|
------------------------------17-|------------------17-----------------|
---------------------------------|-------------------------------------|


                         Slide down                        
   Q     H           E   E            H.           E   E   
-----------------------------------|------------------13--|
-----------------------------------|----------------------|
-----------------------------------|----------------------|
--14----14br--------12--11~--------|--L------------L------|
-----------------------------------|----------------------|
-----------------------------------|----------------------|


              |--3--|  |--3--|  |--3--|  |--3--|  
   H          S  S  S  S  S  S  S  S  S  S  S  S  
--15b--------17-17-17-17-17-17-17-17-17-17-17-17-|
-------------------------------------------------|
-------------------------------------------------|
-------------------------------------------------|
-------------------------------------------------|
-------------------------------------------------|


   E      E   E   E    E   E   E   E    
--15pbr--13--15--15b--13---------------|
--------------------------15--13--15~--|
---------------------------------------|
---------------------------------------|
---------------------------------------|
---------------------------------------|


                 Hammer on: bend, pull off: release           
  Q     Q.       E                                  E    E    
-------20b------20h--------------------------------22p--20h--|
--L----------------------------------------------------------|
-------------------------------------------------------------|
-------------------------------------------------------------|
-------------------------------------------------------------|
-------------------------------------------------------------|


   E    E    H         E   S  S     Q.       S  S  Q.       S  S  
--22p--20h--22---------L--------|--------------------------------|
--------------------------17-18-|--20~------18-17-18~------17-18-|
--------------------------------|--------------------------------|
--------------------------------|--------------------------------|
--------------------------------|--------------------------------|
--------------------------------|--------------------------------|


                                     bend to 15                
   Q.       S  S  E   E   E   E      Q.         E   H          
---------------------------------|----------------------------|
--20~------18-17-18--17--17--15--|--14~--------15--14~--------|
---------------------------------|----------------------------|
---------------------------------|----------------------------|
---------------------------------|----------------------------|
---------------------------------|----------------------------|


   E   E   E   E   Q       E   E      H.             Q     
----------------------------------|-----------------------|
--14--15--17--18--18br----17--18--|--15~------------13----|
----------------------------------|-----------------------|
----------------------------------|-----------------------|
----------------------------------|-----------------------|
----------------------------------|-----------------------|


   W                     W                    W                 
---------------------|---------------------|-------------------|
--10~----------------|---------------------|-------------------|
---------------------|--12~----------------|--L----------------|
---------------------|---------------------|-------------------|
---------------------|---------------------|-------------------|
---------------------|---------------------|-------------------|


   H.             Q        W                     H.             Q       
-----------------------|---------------------|-------------------------|
--15~------------13----|--10~----------------|-------------------------|
-----------------------|---------------------|--12~--------------------|
-----------------------|---------------------|-----------------11br----|
-----------------------|---------------------|-------------------------|
-----------------------|---------------------|-------------------------|


                             NH                                  
  W                   Q      H.                W                 
-------------------|------------------------|-------------------|
-------------------|------------------------|-------------------|
-------------------|------------------------|-------------------|
--L----------------|--L----<>7br------------|--L----------------|
-------------------|------------------------|-------------------|
-------------------|------------------------|-------------------|


                       slows down                       
                       ^                                
  W                    E         E  E   E  E  E  E  E   
-------------------|--10~--------------10--------8-----|
-------------------|---6~---------------------------6--|
-------------------|---7~-----------7---------7--------|
--L----------------|---0~--------0---------0-----------|
-------------------|-----------------------------------|
-------------------|-----------------------------------|


                                                        ^                  
  E  E  E  E  E  E  E  E     E  E  E  E  E  E  E  E     W                  
--5--------5--------3-----|--3-----------------------|--3~----------------|
-----3--------3--------3--|-----3-----3--------------|--1~----------------|
--------3--------3--------|--------0-----0-----0-----|--0~----------------|
--------------------------|-----------------2-----2--|--2~----------------|
--------------------------|--------------------------|--------------------|
--------------------------|--------------------------|--------------------|


  Kiitos.                                
  W                                      
--L----------------|-------------------||
--L----------------|-------------------||
--L----------------|-------------------||
--L----------------|-------------------||
-------------------|-------------------||
-------------------|-------------------||




Duration Legend
---------------
W - whole
H - half
Q - quarter
E - 8th
S - 16th
T - 32nd
X - 64th
. - note dotted
|-n-|  - n-tuplets


Tablature Legend
----------------
L - tied note
x - dead note
g - grace note
(n) - ghost note
> - accentuded note
NH - natural harmonic
AH - artificial harmonic
TH - tapped harmonic
SH - semi harmonic
PH - pitch harmonic
h - hammer on
p - pull off
b - bend
br - bendRelease
pb - preBend
pbr - preBendRelease
brb - bendReleaseBend
\n/ - tremolo bar dip
\n - tremolo bar dive
-/n - tremolo bar Release up
/n\ - tremolo bar inverted dip
/n - tremolo bar return
-\n - tremolo bar Release down
S - shift slide
s - legato slide
/ -  slide into from below or out of upwards
\ -  slide into from above or out of downwards
~ - vibrato
W - wide vibrato
tr - trill
TP - tremolo picking
T - tapping
S - slap
P - pop
< - fade in
^ - brush up
v - brush down





Comments


Popular Sentenced tabs & chords
Dead Moon Rising Bass Tabs
Excuse Me While I Kill Myself Bass Tabs
Farewell Bass Tabs
Lower The Flags Bass Tabs
Vengeance Is Mine 2 Chords
Bleed Tabs
Mourn Tabs
Shadegrown Tabs
Sun Won't Shine Tabs
You Are The One Tabs


Song lyrics



↑ Back to top | Tablatures and chords are parodies/interpretations of the original songs. You may use it for private study, scholarship, research or language learning purposes only
© 2014 AZChords.com Contact us | Privacy policy | DMCA | Add/correct tabs | Request tabs | Top 50 tabs