» » »

Aika Multaa Muistot (Everything Is Nothing) Bass tabs (ver.1)

Artists:  A B C D E F G H I J K L M N O P Q R S T U V W X Y Z # 

Aika Multaa Muistot (Everything Is Nothing) Bass tabs (ver.1)

Sentenced
Rating:
0/5 (0 votes)

Hard to play? Try these video lessons and learn fast.
                “Aika Multaa Muistot” (Everything is Nothing) – Sentenced
Tuning: Drop D

Rest until 1:15

Verse
|------------------------------------|
|--------------------------------5---|
|-7-7----2-3-3---5—5---5-5---5-----5-|
|--------------------------5---5-----| A

|------------------------------------|
|------------------------------------|
|-7-7----2-3-3---5—5---5-5---5-------|
|--------------------------5---5--3-2| B

|------------------------------------|
|------------------------------4-5-7-|
|-7-7----2-3-3---5—5---5-5---5-------|
|--------------------------5---------| C

Then Play B again
REST

Quiet Part
|---------------------------------------------------------------------|
|---------------------------------------------------------------------|
|--7-7---5-7-7---5-5-5---5-5---3-3-3---2-3-3--------------------------|
|----------------------5----------------------5-5-5---5-5-5-5-5-5-5-5-|

|---------------------------------------------------------------------|
|---------------------------------------------------------------------|
|--7-7---5-7-7---5-5-5---5-5---3-3-3---2-3-3-----------7-7-7/5-7-7-7/5|
|----------------------5----------------------7-7-7--7----------------|

After He Yells “Hey”

|---------------------------------------------------------------------|
|---------------------------------------------------------------------|
|-------5-5--------7---7-7-5-7------3-3---3-3-3—3---------------------|
|-0-0--------5-5---------------12/----------------5-5---5-5-5---5-7-7-|

|-------------------------|
|-------------------------|
|-------------------------|
|-7-7-7---7-7-7-7-7-7-7-7-| play this and the line above it x4

Outro
|------------------------------------|
|------------------------------------|
|------5-3---5~-------7~---5-3----2~-|
|-0~---------------------------------|
            
Hard to play? Try these video lessons and learn fast. | Correct




comments powered by Disqus
↑ Back to top | Tablatures and chords are parodies/interpretations of the original songs. You may use it for private study, scholarship, research or language learning purposes only