» » »

Selena Gomez, Naturally Tabs (ver.1)

Artists:  A B C D E F G H I J K L M N O P Q R S T U V W X Y Z # 

Naturally Tabs (ver.1)

Selena Gomez Tabs
Rating:
0/5 (0 votes)
Naturally lessons Tabs too difficult? Try these video lessons and learn fast
                Selena Gomez - Naturally (Live)
-------------------------------

This tab refers to the live version of Naturally performed at Dick Clark's
New Year's Rockin' Eve 2009 including the solo at the end.




### INTRO ###
e|----|----|-----------------|-----------------|-----------------|
B|----|----|-----------------|-----------------|-----------------|
G|----|----|-----------------|-----------------|-----------------|
D|----|----|-----------------|-----------------|-----------------|
A|----|----|-----------------|-----------------|-----------------|
E|----|----|--1-6------------|--2------4-------|--1-6------------|


### VERSE ###
e|------------------------------------|
B|------------------------------------|
G|------------------------------------| palm
D|--8--------4-------6-------8--------| muted
A|--8-(32x)--4-(8x)--6-(8x)--8-(16x)--|
E|--6--------2-------4-------6--------|


### PRE-CHORUS ###
e|-----------|-----------|-----------------|
B|-----------|-----------|-----------------|
G|-----------|-----------|-----------------| 2x
D|--4--------|--6--------|--8--------------|
A|--4--------|--6--------|--8--------------|
E|--2--------|--4--------|--6--------------|


### CHORUS ###
e|----------------------------------|
B|----------------------------------|
G|------------------6---------------| 4x
D|--8-------4-------6-(8x)--6-------|
A|--8-(8x)--4-(8x)--4-------6-(8x)--|
E|--6-------2---------------4-------|



### VERSE ###

### PRE-CHORUS ### (On the second time, don't play the last chord (A#))

### CHORUS ###



### INTERLUDE ###
e|-----------------------------|-------------------|
B|-----------------------------|-------------------|
G|--10----8----5-5br-5br-------|--10----8----------|
D|-----------------------6-----|-------------8-----|
A|-----------------------------|-------------------|
E|-----------------------------|-------------------|



### CHORUS ### (Begin on third chord (C#))



### SOLO ###
e|-------------------------|--------------------------------------|
B|--6---67---79-7-6--------|--6---67---7-9-9-999-9-9h11-9--11-13--|
G|----6----6--------8------|----6----6----------------------------|
D|--------------------6-6--|--------------------------------------|
A|-------------------------|--------------------------------------|
E|-------------------------|--------------------------------------|

e|----16---16---16-16-14-13-14-13-----|----16---16---16br-14-13-14-13-----|
B|--14---14---14------------------14--|--14---14---14-----------------14--|
G|------------------------------------|-----------------------------------|
D|------------------------------------|-----------------------------------|
A|------------------------------------|-----------------------------------|
E|------------------------------------|-----------------------------------|

e|-------16-------|------------------|------------------|-----------------|
B|--15b18---(4x)--|--------14h16p14--|------------------|-----------------|
G|----------------|--13h15-----------|--------13-15-13--|--15--13--15-----|
D|----------------|------------------|--13h15-----------|-----------------|
A|----------------|------------------|------------------|-----------------|
E|----------------|------------------|------------------|-----------------|
            

comments powered by Disqus
↑ Back to top | Selena Gomez Tabs for Naturally. Lyrics for acoustic guitar and electric guitar. Tablatures and chords are parodies/interpretations of the original songs. You may use it for private study, scholarship, research or language learning purposes only