>
 >
More

More Guitar Tabs

Selena Gomez - More chords, tabs, tablatures, lyrics

Guitar lessons | Add/correct | Request | Top 50 tabs Artists:  A B C D E F G H I J K L M N O P Q R S T U V W X Y Z 0-9

More Guitar Tabs – Selena Gomez

CD, Sheet music, Poster

Do you like More? Share with your friends now
ChordsTabsUkulele
Selena Gomez & The Scene - More

Standard  tuning


i tabbed this using this video, so you should watch this if you need help... especially 
some parts aren't played in the cd version

my email...

INTRO
e|----------|
B|----------|
G|----------|
D|----------|
A|---5h7----|
E|----------|

VERSE
e|---------|-------------|--------------------------------------------|
B|---------|-------------|--------------------------------------------|
G|---------|-------------|--------------------------------------------|
D|---------|-------------|--------------------------------------------|
A|---5h7---|-----9h10----|--------------------------------------------|
E|---------|-------------|---7h9--7h9----77777------------------------|
* listen or watch the video to find out how many times to play it

then...
e|-----------------------------------------------------------|
B|----8-8--7-7-7--10-10-10--8-8-8--7-8-8--7-7-7--10-10-10----|
G|----9-9--9-9-9--9--9--9---9-9-9--9-9-9--9-9-9--9--9--9-----|
D|-----------------------------------------------------------|
A|-----------------------------------------------------------|
E|-----------------------------------------------------------|

e|---------------------------------------------------------------------|
B|---8-8-8--7-8-8--8-8-8--8-8-8--8-8-8--8--7-7-7--7-7-7--7-7\5--5-5-5--|
G|---9-9-9--9-9-9--9-9-9--9-9-9--9-9-9--9--7-7-7--7-7-7--7-7\5--5-5-5--|
D|---------------------------------------------------------------------|
A|---------------------------------------------------------------------|
E|---------------------------------------------------------------------|

CHORUS
e|---------------------------------|
B|---------------------------------|
G|---9------------7-----5----------|
D|---x------5-----x-----x----------|
A|---7------x-----5-----3----------|
E|----------3----------------------|

im pretty sure thats what is played live but u could also play:
e|---------------------------------|
B|---------------------------------|
G|---9-----12-----7-----5----------|
D|---x-----x------x-----x----------|
A|---7-----10-----5-----3----------|
E|---------------------------------|

play that twice then on the second half play this - but u might have to listen to the 
version well to hear how to play it - and im not 100% sure but it sounds alright i guess - 
listen to it for strumming patterns cuz theres like muting and stuff sometimes
- if u dont get this part u could just play the other part twice instead

e|--7-7-7-7--10-10-x----------10-10-10-----------------10h12-10-8------|
B|--x-x-x-8--8--8--x--8-10-8--10-10-10---------------------------------|
G|--9-9-9-9--9--9--x--9-9--9--11-11-11--11-11--9--9--------------------|
D|--------------------------------------12-12--10-10-------------------|
A|---------------------------------------------------------------------|
E|---------------------------------------------------------------------|

e|---7-7-7-7--10-10-x-----------10-10-10-------------------------------|
B|---x-x-x-8--8--8--x--8-10-8---10-10-10-------------------------------|
G|---9-9-9-9--9--9-----9-9--9---11-11-11--11-11--9--9--9--9--9--9--9---|
D|----------------------------------------12-12--10-10-10-10-10-10-10--|
A|---------------------------------------------------------------------|
E|---------------------------------------------------------------------|

BRIDGE
the live version and cd version are a little bit different but it should sound ok
e|--------------------------------------------------|
B|--------------------------------------------------|
G|-----5-----12-12---11-11-9-9--7-7-----------------|
D|--7--5--2--x---x---x--x--x-x--x-x-----------------|
A|--7--3--2--10-10---9--9--7-7--5-5-----------------|
E|--5-----0-----------------------------------------|

e|---------------------------------------------------------------------|
B|-------------------------------8-8-7-7-10-10-7-8-8-7-7-10-10-8-8-----|
G|-------5-----------------------9-9-9-9-9--9--9-9-9-9-9-9--9--9-9-----|
D|---7---5---2---5----7---10-------------------------------------------|
A|---7---3---2---5----7---10-------------------------------------------|
E|---5-------0---3----5---8--------------------------------------------|

REPEAT CHORUS AND PLAY THE INTRO FOR THE OUTRO





Comments


Popular Selena Gomez tabs & chords
Stop And Erase Bass Tabs
I Don't Miss You At All 1 Chords
I Don't Miss You At All 2 Chords
Middle Of Nowhere Chords
My Dilemma 2 Chords
Off The Chain 1 Chords
Who Says 1 Chords
Magical Tabs
Sick Of You Ukulele
Winter Wonderland Intro Ukulele


Song lyrics



↑ Back to top | Tablatures and chords are parodies/interpretations of the original songs. You may use it for private study, scholarship, research or language learning purposes only
© 2014 AZChords.com Contact us | Privacy policy | DMCA | Add/correct tabs | Request tabs | Top 50 tabs