» » »

Selena Gomez, Magical Tabs (ver.1)

Artists:  A B C D E F G H I J K L M N O P Q R S T U V W X Y Z # 

Magical Tabs (ver.1)

Selena Gomez Tabs
Rating:
3/5 (2 votes)
Magical lessons Tabs too difficult? Try these video lessons and learn fast
                Selena Gomez - Magical
LISTEN TO THE SONG FOR STRUMMING PATTERNS

Verse:
e|------------------------------------------------------------------|
B|------------------------------------------------------------------|
G|---10---------9---------7-------5---------------------------------|
D|---10---------9---------7-------5---------------------------------|
A|---8----------7---------5-------3---------------------------------|
E|------------------------------------------------------------------|

Pre chorus
e|-----------------------------------------------------------|
B|-----------------------------------------------------------|
G|----3--------5---------------------------------------------|
D|----3--------5---------------------------------------------|
A|----1--------3---------------------------------------------|
E|-----------------------------------------------------------|

Chorus
e|-----------------------------------|---------------------------------|
B|-----------------------------------|---------------------------------|
G|--------5----3-----5----7---5---3--|------5---3---5------------------|
D|--3-----5----3-----5----7---5---3--|--3---5---3---5---5--8---10------|
A|--3-----3----1-----3----5---3---1--|--3---3---1---3---5--8---10------|
E|--1--------------------------------|--1---------------3--6---8-------|
LISTEN TO THE SONG FOR STRUMMING PATTERNS (I DIDNT PUT HOW MANY TIMES YOU HAVE TO STRUM IT)

repeat verse,pre chorus, and chorus

Bridge
e|---------------------------------------------------------------------|
B|---------------------------------------------------------------------|
G|---7--------9------10-------------9---7------10----------------------|
D|---7--------9------10-------------9---7------10----------------------|
A|---5--------7------8--------------7---5------8-----------------------|
E|---------------------------------------------------------------------|
Again, listen to the song to hear this part
Then after that, you start hearing this(its also the outro)
e|-----------------------------------------------------------------|
B|-----------------------------------------------------------------|
G|----10------9------7---------------------------------------------|
D|----10------9------7---------------------------------------------|
A|----8-------7------5---------------------------------------------|
E|-----------------------------------------------------------------|

repeat the chorus
hope i helped
            
Submit corrections

comments powered by Disqus
↑ Back to top | Selena Gomez Tabs for Magical. Lyrics for acoustic guitar and electric guitar. Tablatures and chords are parodies/interpretations of the original songs. You may use it for private study, scholarship, research or language learning purposes only