» » »

Selena Gomez, Magic Chords (ver.3)

Artists:  A B C D E F G H I J K L M N O P Q R S T U V W X Y Z # 

Magic Chords (ver.3)

Selena Gomez Tabs
 Rating:
4/5 (5 votes)
Magic lessons Tabs too difficult? Try these video lessons and learn fast
                Selena Gomez
Magic
Wizards Of Waverly Place The Movie Soundtrack
2009 Hollywood Records

Key: G

Tuning: Standard EADGBe

Chords used:
G -  320033
D -  xx0232
Em - 022000
F -  133211
C -  x32010
Am - x02210
Cm - x35543
Bm - x24432
F# - 244322


Intro: Cm


Chorus:
G
Oh, oh, oh
     Bm         Am
It's magic, you know
D                      G
Never believe it's not so
     Bm         Am
It's magic, you know
D                       Cm G F# F
Never believe, it's not so


Verse 1:
G
Never been awake
Bm               Em
Never seen a day break
Am
Leaning on my pillow
       C  D
in the morning
G
Lazy day in bed
Bm          Em
Music in my head
Am
Crazy music playing in
    C  D    G    F# F
the morning light


(Repeat Chorus)


Verse 2:
  G
I love my sunny day
Bm            Em
Dream of far away
Am
Dreaming on my pillow
       C  D
in the morning
G
Never been awake
Bm               Em
Never seen a day break
Am
Leaning on my pillow
       C  D    G    F# F
in the morning light


Guitar Solo:
          G             Bm     Em
e|-3/7-7-7-7-7-7-7-7-|-------|----|
B|-------------------|-7-7-7-|-8--|
G|-------------------|-------|----|
D|-------------------|-------|----|
A|-------------------|-------|----|
E|-------------------|-------|----|

        Am             C        D
e|-5/7-7-7-7-7---|-7-7-7-7-7-|-7---|
B|-------------5-|-----------|-----|
G|---------------|-----------|---7-|
D|---------------|-----------|-----|
A|---------------|-----------|-----|
E|---------------|-----------|-----|

          G               Bm      Em
e|-3/7-7-7-7-7-7-7-7-|-10-10-10-|----|
B|-------------------|----------|-8--|
G|-------------------|----------|----|
D|-------------------|----------|----|
A|-------------------|----------|----|
E|-------------------|----------|----|

        Am             C        D
e|-5/7-7-7-7-7---|-7-7-7-7-7-|-7---|
B|-------------5-|-----------|-----|
G|---------------|-----------|---7-|
D|---------------|-----------|-----|
A|---------------|-----------|-----|
E|---------------|-----------|-----|

    G    F#   F
e|-----|---|-----|
B|-----|---|-5/6-|
G|-4-5-|-4-|-----|
D|-----|---|-----|
A|-----|---|-----|
E|-----|---|-----|


(Repeat Chorus twice)


Outro:
G-G-F#-F x3

Never Believe
            
Submit corrections

comments powered by Disqus
↑ Back to top | Selena Gomez Chords for Magic. Lyrics for acoustic guitar and electric guitar. Tablatures and chords are parodies/interpretations of the original songs. You may use it for private study, scholarship, research or language learning purposes only