» » »

Love You Like A Love Song Tabs (ver.1)

Artists:  A B C D E F G H I J K L M N O P Q R S T U V W X Y Z # 

Love You Like A Love Song Tabs (ver.1)

Selena Gomez
Rating:
1/5 (2 votes)

Hard to play? Try these video lessons and learn fast.
                

 Intro
  Q  E Q  E E E E E E E E Q.
|-4--4-4--4-4-4-4-4-4-4-4-------|
|-5--5-5--5-5-5-5-5-5-5-5-------|
|-6--6-6--6-6-6-6-6-6-6-6-------|
|-6--6-6--6-6-6-6-6-6-6-6-------|
|-4--4-4--4-4-4-4-4-4-4-4-------|
|-------------------------------|


 Verse
  Q  E Q  E Q  Q  E Q  E Q  Q  E Q  E Q  Q  E Q  E Q
|-4--4-4--4-4--0--0-0--0-0--2--2-2--2-2--4--4-4--4-4----|
|-5--5-5--5-5--2--2-2--2-2--4--4-4--4-4--4--4-4--4-4----|
|-6--6-6--6-6--2--2-2--2-2--4--4-4--4-4--5--5-5--5-5----|
|-6--6-6--6-6--2--2-2--2-2--4--4-4--4-4--6--6-6--6-6----|
|-4--4-4--4-4--0--0-0--0-0--2--2-2--2-2--6--6-6--6-6----|
|----------------------------------------4--4-4--4-4----|


  Q  E Q  E Q  Q  E Q  E Q  Q  E Q  E E Q  E E Q  E Q
|-0--0-0--0-0--4--4-4--4-4--4--4-4--4-4-4--4-4-4--4-4----|
|-2--2-2--2-2--5--5-5--5-5--4--4-4--4-4-4--4-4-4--4-4----|
|-2--2-2--2-2--6--6-6--6-6--5--5-5--5-5-5--5-5-5--5-5----|
|-2--2-2--2-2--6--6-6--6-6--6--6-6--6-6-6--6-6-6--6-6----|
|-0--0-0--0-0--4--4-4--4-4--6--6-6--6-6-6--6-6-6--6-6----|
|---------------------------4--4-4--4-4-4--4-4-4--4-4----|


  Q  E Q  E Q  Q  E Q  E Q  Q  E Q  E Q  Q  E Q  E Q
|-4--4-4--4-4--0--0-0--0-0--2--2-2--2-2--4--4-4--4-4----|
|-5--5-5--5-5--2--2-2--2-2--4--4-4--4-4--4--4-4--4-4----|
|-6--6-6--6-6--2--2-2--2-2--4--4-4--4-4--5--5-5--5-5----|
|-6--6-6--6-6--2--2-2--2-2--4--4-4--4-4--6--6-6--6-6----|
|-4--4-4--4-4--0--0-0--0-0--2--2-2--2-2--6--6-6--6-6----|
|----------------------------------------4--4-4--4-4----|


  Q  E Q  E Q  Q  E Q  E Q  Q  E Q  E E Q  E E Q  E Q
|-0--0-0--0-0--4--4-4--4-4--4--4-4--4-4-4--4-4-4--4-4----|
|-2--2-2--2-2--5--5-5--5-5--4--4-4--4-4-4--4-4-4--4-4----|
|-2--2-2--2-2--6--6-6--6-6--5--5-5--5-5-5--5-5-5--5-5----|
|-2--2-2--2-2--6--6-6--6-6--6--6-6--6-6-6--6-6-6--6-6----|
|-0--0-0--0-0--4--4-4--4-4--6--6-6--6-6-6--6-6-6--6-6----|
|---------------------------4--4-4--4-4-4--4-4-4--4-4----|


 Chorus
  Q  E Q  E Q  Q  E Q  E Q  Q  E Q  E Q  Q  E Q  E Q
|-4--4-4--4-4--2--2-2--2-2--2--2-2--2-2--0--0-0--0-0----|
|-5--5-5--5-5--2--2-2--2-2--4--4-4--4-4--0--0-0--0-0----|
|-6--6-6--6-6--2--2-2--2-2--4--4-4--4-4--1--1-1--1-1----|
|-6--6-6--6-6--4--4-4--4-4--4--4-4--4-4--2--2-2--2-2----|
|-4--4-4--4-4--4--4-4--4-4--2--2-2--2-2--2--2-2--2-2----|
|--------------2--2-2--2-2---------------0--0-0--0-0----|


  Q  E Q  E Q  Q  E Q  E Q  Q  E Q  E Q  Q  E Q  E Q
|-0--0-0--0-0--2--2-2--2-2--4--4-4--4-4--4--4-4--4-4----|
|-2--2-2--2-2--2--2-2--2-2--4--4-4--4-4--5--5-5--5-5----|
|-2--2-2--2-2--2--2-2--2-2--5--5-5--5-5--6--6-6--6-6----|
|-2--2-2--2-2--4--4-4--4-4--6--6-6--6-6--6--6-6--6-6----|
|-0--0-0--0-0--4--4-4--4-4--6--6-6--6-6--4--4-4--4-4----|
|--------------2--2-2--2-2--4--4-4--4-4-----------------|


  Q  E Q  E Q  Q  E Q  E Q  Q  E Q  E Q  Q  E Q  E Q
|-4--4-4--4-4--2--2-2--2-2--2--2-2--2-2--0--0-0--0-0----|
|-5--5-5--5-5--2--2-2--2-2--4--4-4--4-4--0--0-0--0-0----|
|-6--6-6--6-6--2--2-2--2-2--4--4-4--4-4--1--1-1--1-1----|
|-6--6-6--6-6--4--4-4--4-4--4--4-4--4-4--2--2-2--2-2----|
|-4--4-4--4-4--4--4-4--4-4--2--2-2--2-2--2--2-2--2-2----|
|--------------2--2-2--2-2---------------0--0-0--0-0----|


  Q  E Q  E Q  Q  E Q  E Q  Q  E Q  E Q  Q  E Q  E Q
|-0--0-0--0-0--2--2-2--2-2--4--4-4--4-4--4--4-4--4-4----|
|-2--2-2--2-2--2--2-2--2-2--4--4-4--4-4--5--5-5--5-5----|
|-2--2-2--2-2--2--2-2--2-2--5--5-5--5-5--6--6-6--6-6----|
|-2--2-2--2-2--4--4-4--4-4--6--6-6--6-6--6--6-6--6-6----|
|-0--0-0--0-0--4--4-4--4-4--6--6-6--6-6--4--4-4--4-4----|
|--------------2--2-2--2-2--4--4-4--4-4-----------------|


 Verse
  Q  E Q  E Q  Q  E Q  E Q  Q  E Q  E Q  Q  E Q  E Q
|-4--4-4--4-4--0--0-0--0-0--2--2-2--2-2--4--4-4--4-4----|
|-5--5-5--5-5--2--2-2--2-2--4--4-4--4-4--4--4-4--4-4----|
|-6--6-6--6-6--2--2-2--2-2--4--4-4--4-4--5--5-5--5-5----|
|-6--6-6--6-6--2--2-2--2-2--4--4-4--4-4--6--6-6--6-6----|
|-4--4-4--4-4--0--0-0--0-0--2--2-2--2-2--6--6-6--6-6----|
|----------------------------------------4--4-4--4-4----|


  Q  E Q  E Q  Q  E Q  E Q  Q  E Q  E E Q  E E Q  E Q
|-0--0-0--0-0--4--4-4--4-4--4--4-4--4-4-4--4-4-4--4-4----|
|-2--2-2--2-2--5--5-5--5-5--4--4-4--4-4-4--4-4-4--4-4----|
|-2--2-2--2-2--6--6-6--6-6--5--5-5--5-5-5--5-5-5--5-5----|
|-2--2-2--2-2--6--6-6--6-6--6--6-6--6-6-6--6-6-6--6-6----|
|-0--0-0--0-0--4--4-4--4-4--6--6-6--6-6-6--6-6-6--6-6----|
|---------------------------4--4-4--4-4-4--4-4-4--4-4----|


  Q  E Q  E Q  Q  E Q  E Q  Q  E Q  E Q  Q  E Q  E Q
|-4--4-4--4-4--0--0-0--0-0--2--2-2--2-2--4--4-4--4-4----|
|-5--5-5--5-5--2--2-2--2-2--4--4-4--4-4--4--4-4--4-4----|
|-6--6-6--6-6--2--2-2--2-2--4--4-4--4-4--5--5-5--5-5----|
|-6--6-6--6-6--2--2-2--2-2--4--4-4--4-4--6--6-6--6-6----|
|-4--4-4--4-4--0--0-0--0-0--2--2-2--2-2--6--6-6--6-6----|
|----------------------------------------4--4-4--4-4----|


  Q  E Q  E Q  Q  E Q  E Q  Q  E Q  E E Q  E E Q  E Q
|-0--0-0--0-0--4--4-4--4-4--4--4-4--4-4-4--4-4-4--4-4----|
|-2--2-2--2-2--5--5-5--5-5--4--4-4--4-4-4--4-4-4--4-4----|
|-2--2-2--2-2--6--6-6--6-6--5--5-5--5-5-5--5-5-5--5-5----|
|-2--2-2--2-2--6--6-6--6-6--6--6-6--6-6-6--6-6-6--6-6----|
|-0--0-0--0-0--4--4-4--4-4--6--6-6--6-6-6--6-6-6--6-6----|
|---------------------------4--4-4--4-4-4--4-4-4--4-4----|


 Chorus
  Q  E Q  E Q  Q  E Q  E Q  Q  E Q  E Q  Q  E Q  E Q
|-4--4-4--4-4--2--2-2--2-2--2--2-2--2-2--0--0-0--0-0----|
|-5--5-5--5-5--2--2-2--2-2--4--4-4--4-4--0--0-0--0-0----|
|-6--6-6--6-6--2--2-2--2-2--4--4-4--4-4--1--1-1--1-1----|
|-6--6-6--6-6--4--4-4--4-4--4--4-4--4-4--2--2-2--2-2----|
|-4--4-4--4-4--4--4-4--4-4--2--2-2--2-2--2--2-2--2-2----|
|--------------2--2-2--2-2---------------0--0-0--0-0----|


  Q  E Q  E Q  Q  E Q  E Q  Q  E Q  E Q  Q  E Q  E Q
|-0--0-0--0-0--2--2-2--2-2--4--4-4--4-4--4--4-4--4-4----|
|-2--2-2--2-2--2--2-2--2-2--4--4-4--4-4--5--5-5--5-5----|
|-2--2-2--2-2--2--2-2--2-2--5--5-5--5-5--6--6-6--6-6----|
|-2--2-2--2-2--4--4-4--4-4--6--6-6--6-6--6--6-6--6-6----|
|-0--0-0--0-0--4--4-4--4-4--6--6-6--6-6--4--4-4--4-4----|
|--------------2--2-2--2-2--4--4-4--4-4-----------------|


  Q  E Q  E Q  Q  E Q  E Q  Q  E Q  E Q  Q  E Q  E Q
|-4--4-4--4-4--2--2-2--2-2--2--2-2--2-2--0--0-0--0-0----|
|-5--5-5--5-5--2--2-2--2-2--4--4-4--4-4--0--0-0--0-0----|
|-6--6-6--6-6--2--2-2--2-2--4--4-4--4-4--1--1-1--1-1----|
|-6--6-6--6-6--4--4-4--4-4--4--4-4--4-4--2--2-2--2-2----|
|-4--4-4--4-4--4--4-4--4-4--2--2-2--2-2--2--2-2--2-2----|
|--------------2--2-2--2-2---------------0--0-0--0-0----|


  Q  E Q  E Q  Q  E Q  E Q  Q  E Q  E Q  Q  E Q  E Q
|-0--0-0--0-0--2--2-2--2-2--4--4-4--4-4--4--4-4--4-4----|
|-2--2-2--2-2--2--2-2--2-2--4--4-4--4-4--5--5-5--5-5----|
|-2--2-2--2-2--2--2-2--2-2--5--5-5--5-5--6--6-6--6-6----|
|-2--2-2--2-2--4--4-4--4-4--6--6-6--6-6--6--6-6--6-6----|
|-0--0-0--0-0--4--4-4--4-4--6--6-6--6-6--4--4-4--4-4----|
|--------------2--2-2--2-2--4--4-4--4-4-----------------|


 Bridge
  W        W        W        W
|-0--------0--------2--------4----|
|-2--------0--------4--------5----|
|-2--------1--------4--------6----|
|-2--------2--------4--------6----|
|-0--------2--------2--------4----|
|----------0----------------------|


  W        W        H    H    Q  E Q  E Q
|-0--------0--------4----4----4--4-4--4-4----|
|-2--------0--------4----4----4--4-4--4-4----|
|-2--------1--------5----5----5--5-5--5-5----|
|-2--------2--------6----6----6--6-6--6-6----|
|-0--------2--------6----6----6--6-6--6-6----|
|----------0--------4----4----4--4-4--4-4----|


 Chorus
  Q  E Q  E Q  Q  E Q  E Q  Q  E Q  E Q  Q  E Q  E Q
|-4--4-4--4-4--2--2-2--2-2--2--2-2--2-2--0--0-0--0-0----|
|-5--5-5--5-5--2--2-2--2-2--4--4-4--4-4--0--0-0--0-0----|
|-6--6-6--6-6--2--2-2--2-2--4--4-4--4-4--1--1-1--1-1----|
|-6--6-6--6-6--4--4-4--4-4--4--4-4--4-4--2--2-2--2-2----|
|-4--4-4--4-4--4--4-4--4-4--2--2-2--2-2--2--2-2--2-2----|
|--------------2--2-2--2-2---------------0--0-0--0-0----|


  Q  E Q  E Q  Q  E Q  E Q  Q  E Q  E Q  Q  E Q  E Q
|-0--0-0--0-0--2--2-2--2-2--4--4-4--4-4--4--4-4--4-4----|
|-2--2-2--2-2--2--2-2--2-2--4--4-4--4-4--5--5-5--5-5----|
|-2--2-2--2-2--2--2-2--2-2--5--5-5--5-5--6--6-6--6-6----|
|-2--2-2--2-2--4--4-4--4-4--6--6-6--6-6--6--6-6--6-6----|
|-0--0-0--0-0--4--4-4--4-4--6--6-6--6-6--4--4-4--4-4----|
|--------------2--2-2--2-2--4--4-4--4-4-----------------|


  Q  E Q  E Q  Q  E Q  E Q  Q  E Q  E Q  Q  E Q  E Q
|-4--4-4--4-4--2--2-2--2-2--2--2-2--2-2--0--0-0--0-0----|
|-5--5-5--5-5--2--2-2--2-2--4--4-4--4-4--0--0-0--0-0----|
|-6--6-6--6-6--2--2-2--2-2--4--4-4--4-4--1--1-1--1-1----|
|-6--6-6--6-6--4--4-4--4-4--4--4-4--4-4--2--2-2--2-2----|
|-4--4-4--4-4--4--4-4--4-4--2--2-2--2-2--2--2-2--2-2----|
|--------------2--2-2--2-2---------------0--0-0--0-0----|


  Q  E Q  E Q  Q  E Q  E Q  Q  E Q  E Q  W
|-0--0-0--0-0--2--2-2--2-2--4--4-4--4-4--4----|
|-2--2-2--2-2--2--2-2--2-2--4--4-4--4-4--5----|
|-2--2-2--2-2--2--2-2--2-2--5--5-5--5-5--6----|
|-2--2-2--2-2--4--4-4--4-4--6--6-6--6-6--6----|
|-0--0-0--0-0--4--4-4--4-4--6--6-6--6-6--4----|
|--------------2--2-2--2-2--4--4-4--4-4-------|
            
Hard to play? Try these video lessons and learn fast. | Correct




comments powered by Disqus
↑ Back to top | Tablatures and chords are parodies/interpretations of the original songs. You may use it for private study, scholarship, research or language learning purposes only