» » »

I Won't Apologize Tabs (ver.1)

Artists:  A B C D E F G H I J K L M N O P Q R S T U V W X Y Z # 

I Won't Apologize Tabs (ver.1)

Selena Gomez
Rating:
0/5 (0 votes)

Hard to play? Try these video lessons and learn fast.
                Tuning: Standard


Intro:
e|----------|
B|----------|
G|----------|
D|--7-------|
A|--7-(x16)-|
E|--5-------| 

Verse:
e|------------------------------------------|
B|------------------------------------------|
G|------------------7-----------------------|
D|-7--------4-------7-(x16)-7-------2-------|
A|-7-(x64)--4-(x16)-5-------7-(x16)-2-(x16)-|
E|-5--------2---------------5-------0-------|

Prechorus:
e|-----|
B|-----|
G|--4--|
D|--4--|
A|--2--|
E|-----|

Chorus: (strum each chord x8)
e|-------------|    |--------|
B|-------------|    |--------|
G|-------7-----|    |--4--7--|
D|-4--2--7--7--|    |--4--7--|
A|-4--2--5--7--|    |--2--5--|
E|-2--0-----5--| x2 |--------|

Postchorus:
e|----------|
B|----------|
G|----------|
D|--7-------|
A|--7-(x16)-|
E|--5-------| 

Verse:
e|------------------------------------------|
B|------------------------------------------|
G|------------------7-----------------------|
D|-7--------4-------7-(x16)-7-------2-------|
A|-7-(x64)--4-(x16)-5-------7-(x16)-2-(x16)-|
E|-5--------2---------------5-------0-------|

Prechorus: 
e|-----|
B|-----|
G|--4--|
D|--4--|
A|--2--|
E|-----|

Chorus:
e|-------------|    |--------|
B|-------------|    |--------|
G|-------7-----|    |--4--7--|
D|-4--2--7--7--|    |--4--7--|
A|-4--2--5--7--|    |--2--5--|
E|-2--0-----5--| x2 |--------|

Bridge:
e|----------------------------------------------------------|
B|----------------------------------------------------------|
G|----------------7-------------4--------------------7------|
D|--4------2------7-(x8)-7------4-(x8)-7------4------7-(x8)-|
A|--4-(x8)-2-(x8)-5------7-(x8)-2------7-(x8)-4-(x8)-5------|
E|--2------0-------------5-------------5------2-------------| 

e|------------------------------------------------|
B|------------------------------------------------|
G|------------------7---------------------7-------|
D|--7-------4-------7-(x8)-7-------4------7-(x8)--|
A|--7-(x16)-4-(x8)--5------7-(x16)-4-(x8)-5-------|
E|--5-------2--------------5-------2--------------| 

Prechorus: 
e|-----|
B|-----|
G|--4--|
D|--4--|
A|--2--|
E|-----|

Chorus:
e|-------------|   
B|-------------|   
G|-------7-----| (strum just one time)  
D|-4--2--7--7--|  
A|-4--2--5--7--| 
E|-2--0-----5--| 


(strum each x8)
e|-------------|    |--------|
B|-------------|    |--------|
G|-------7-----|    |--4--7--|
D|-4--2--7--7--|    |--4--7--|
A|-4--2--5--7--|    |--2--5--|
E|-2--0-----5--| x2 |--------|

e|-------------|    |--------|
B|-------------|    |--------|
G|-------7-----|    |--4--7--|
D|-4--2--7--7--|    |--4--7--|
A|-4--2--5--7--|    |--2--5--|
E|-2--0-----5--| x2 |--------|

e|-------------|   
B|-------------|   
G|-------4—-7~-|   
D|-4--2--4—-7~-|  
A|-4--2--2--5~-| 
E|-2--0--------| 
            
Hard to play? Try these video lessons and learn fast. | Correct




comments powered by Disqus
↑ Back to top | Tablatures and chords are parodies/interpretations of the original songs. You may use it for private study, scholarship, research or language learning purposes only