» » »

Selena Gomez, I Got U Tabs (ver.1)

Artists:  A B C D E F G H I J K L M N O P Q R S T U V W X Y Z # 

I Got U Tabs (ver.1)

Selena Gomez Tabs
 Rating:
4.2/5 (5 votes)
I Got U lessons Tabs too difficult? Try these video lessons and learn fast
1
                Tuning: Standard


Intro:
e|------------|
B|------------|
G|-------4----|
D|-6--2--4—-4-|
A|-6--2--2—-4-|
E|-4--0-----2-|

Verse:
e|----------------|
B|----------------|
G|---------4--3---|
D|-6----2--4--4---|
A|-6----2--2--1---|
E|-4----0---------| x2

Prechorus:
e|--------------------|
B|--------------------|
G|---------4----------|
D|--2------4---4--2---|
A|--2------2---4--2---|
E|--0----------2--0---| 

Chorus:
e|-------------------|
B|-------------------|
G|-4--3--------------|
D|-4--4--6--4--2--4--|
A|-2--1--6--4--2--4--|
E|-------4--2--0--2--| 

e|-----------------|
B|-----------------|
G|-4--3------------|
D|-4--4--6--4--2---|
A|-2--1--6--4--2---|
E|-------4--2--0---| 

Postchorus:
e|------------|
B|------------|
G|-------4----|
D|-6--2--4—-4-|
A|-6--2--2—-4-|
E|-4--0-----2-|

Verse:
e|----------------|
B|----------------|
G|---------4--3---|
D|-6----2--4--4---|
A|-6----2--2--1---|
E|-4----0---------| x2

Prechorus:
e|--------------------|
B|--------------------|
G|---------4----------|
D|--2------4---4--2---|
A|--2------2---4--2---|
E|--0----------2--0---| 

Chorus:
e|-------------------|
B|-------------------|
G|-4--3--------------|
D|-4--4--6--4--2--4--|
A|-2--1--6--4--2--4--|
E|-------4--2--0--2--| 

e|-----------------|
B|-----------------|
G|-4--3------------|
D|-4--4--6--4--2---|
A|-2--1--6--4--2---|
E|-------4--2--0---| 

Bridge:
e|--------------------------------|
B|--------------------------------|
G|---------8--------------6--4----|
D|--2---6—-8—-4—-3—-2—-4-—6—-4--4-|
A|--2---6—-6—-4—-4—-2--4—-4—-2—-4-|
E|--0---4-----2—-1--0--2--------2-| 

Play this during the solo and till the end:
e|---------------------|
B|---------------------|
G|-4--3-----------4----|
D|-4--4--6--4--2--4--4-|
A|-2--1--6--4--2--2--4-|
E|-------4--2--0-----2-|
            
Submit corrections

comments powered by Disqus
↑ Back to top | Selena Gomez Tabs for I Got U. Lyrics for acoustic guitar and electric guitar. 1 Tablatures and chords are parodies/interpretations of the original songs. You may use it for private study, scholarship, research or language learning purposes only