» » »

Selena Gomez, Falling Down Tabs (ver.4)

Artists:  A B C D E F G H I J K L M N O P Q R S T U V W X Y Z # 

Falling Down Tabs (ver.4)

Selena Gomez Tabs
 Rating:
4/5 (4 votes)
Falling Down lessons Tabs too difficult? Try these video lessons and learn fast
                LISTEN TO THE SONG FOR TIMING AND VARIATION OF THE NOTES
Effects - Distortion

Intro/Verse:
E|------------------------|
B|------------------------|
G|------------------------|
D|------3-3---------------|
A|-5-5------2-3-3--2-3-4--|
E|------------------------|

Eree-Eree: ;D
*Rub Your Pick Against Your Strings Diagonally From Thinest Strings To Thickest Strings 
While Muting Them With Your Left Hand (Up,Down,Up,Down)

Chorus:
E|------------------------------------------------------------------|
B|------------------------------------------------------------------|
G|------------------------------------------------------------------|
D|-7-7-7-7-7-7-7-7-4-4-4-4-4-4-4-4-5-5-5-5-5-5-5-5------------------|X3 Then
A|-5-5-5-5-5-5-5-5-2-2-2-2-2-2-2-2-3-3-3-3-3-3-3-3-5-5-5-5-5-5-5-5--|
E|-------------------------------------------------3-3-3-3-3-3-3-3--|

(Continued)
E|------------------------------------------|
B|------------------------------------------|
G|------------------------------------------|
D|------------------------------------------|X1
A|-8-8-8-8-8-8-8-8-10-10-10-10-10-10-10-10--|
E|-6-6-6-6-6-6-6-6--8--8--8--8--8--8--8--8--|

"Smile For The Camera..."
E|--------------------------|
B|--------------------------|
G|--------------------------|
D|--------------------------|
A|-5---5--3-5---5---5--5-3--|
E|--------------------------|

Bridge:
E|------------------------------------------------------|
B|------------------------------------------------------|
G|-7-7--7-7-7-7-4-4--4-4-4-4-5-5--5-5-5-5---------------|
D|-X-X--X-X-X-X-X-X--X-X-X-X-X-X--X-X-X-X-5-5--5-5-5-5--|
A|-5-5--5-5-5-5-2-2--2-2-2-2-3-3--3-3-3-3-X-X--X-X-X-X--|
E|----------------------------------------3-3--3-3-3-3--|

(Continued)
E|-----------------------------------------------|
B|-----------------------------------------------|
G|-7-7--7-7-7-7-4-4--4-4-4-4-5-5--5-5-5-5--------|
D|-X-X--X-X-X-X-X-X--X-X-X-X-X-X--X-X-X-X-5-5-5--|
A|-5-5--5-5-5-5-2-2--2-2-2-2-3-3--3-3-3-3-X-X-X--|
E|----------------------------------------3-3-3--|

Ending: "Smile For The Camera..."
E|-------------------------------|
B|-------------------------------|
G|-------------------------------|
D|------3-3----------3-3---------|
A|-5-5------5---5-5------5--5-3--|
E|-------------------------------|
            
Submit corrections

comments powered by Disqus
↑ Back to top | Selena Gomez Tabs for Falling Down. Lyrics for acoustic guitar and electric guitar. Tablatures and chords are parodies/interpretations of the original songs. You may use it for private study, scholarship, research or language learning purposes only