» » »

Selena Gomez, Everything Is Not What It Seems Tabs (ver.1)

Artists:  A B C D E F G H I J K L M N O P Q R S T U V W X Y Z # 

Everything Is Not What It Seems Tabs (ver.1)

Selena Gomez Tabs
Rating:
5/5 (1 vote)
Everything Is Not What It Seems lessons Tabs too difficult? Try these video lessons and learn fast
                
e|--8------|
B|----9----|
G|------9--|
D|---------|
A|---------|
E|---------|

e|--------------------------------|
B|----------------------------4---|
G|--5-5-5--5-5-5---5-5-5-5-5------|
D|--------------------------------|
A|--------------------------------|
E|--------------------------------|

e|----------------------------3---|
B|--------------------------------|
G|--5-5-5--5-5-5---5-5-5-5-5------|
D|--------------------------------|
A|--------------------------------|
E|--------------------------------|

e|----------------------------4---|
B|--------------------------------|
G|--5-5-5--5-5-5---5-5-5-5-5------|
D|--------------------------------|
A|--------------------------------|
E|--------------------------------|

e|-------------|
B|-------------|
G|--5-4-5------|
D|---------6---|
A|-------------|
E|-------------|

e|--------------------------------|
B|----------------------------4---|
G|--5-5-5--5-5-5---5-5-5-5-5------|
D|--------------------------------|
A|--------------------------------|
E|--------------------------------|

e|----------------------------3---|
B|--------------------------------|
G|--5-5-5--5-5-5---5-5-5-5-5------|
D|--------------------------------|
A|--------------------------------|
E|--------------------------------|

e|----------------------------4---|
B|--------------------------------|
G|--5-5-5--5-5-5---5-5-5-5-5------|
D|--------------------------------|
A|--------------------------------|
E|--------------------------------|

e|-------------|
B|-------------|
G|--5-4-5------|
D|---------6---|
A|-------------|
E|-------------|

e|----------------------------------------------------------|
B|----6--6-6--5------------------6-6-6--6-8-5---------------|
G|--5-----------5-5-5---5-5-5-5----------------5-5-5--5-5---|
D|----------------------------------------------------------|
A|----------------------------------------------------------|
E|----------------------------------------------------------|

e|--------------------------------------------------|
B|----6-6-6--6-8-5----------------------------------|
G|--5--------------5-5-5--5-5---5-3-5-7-5-3---------|
D|------------------------------------------6-5-3---|
A|--------------------------------------------------|
E|--------------------------------------------------|

e|----------------------------------------------------------|
B|----6--6-6--5------------------6-6-6--6-8-5---------------|
G|--5-----------5-5-5---5-5-5-5----------------5-5-5--5-5---|
D|----------------------------------------------------------|
A|----------------------------------------------------------|
E|----------------------------------------------------------|

e|---------------------------------------------------|
B|----6-6-6--6-8-5-----------------------------5--4--|
G|--5--------------5-5-5--5-5---5-3-5-7-5----5--5----|
D|---------------------------------------------------|
A|---------------------------------------------------|
E|---------------------------------------------------|

e|--8-7-8--------|
B|--------9------|
G|----------9-10-|
D|---------------|
A|---------------|
E|---------------|
            
Submit corrections

comments powered by Disqus
↑ Back to top | Selena Gomez Tabs for Everything Is Not What It Seems. Lyrics for acoustic guitar and electric guitar. Tablatures and chords are parodies/interpretations of the original songs. You may use it for private study, scholarship, research or language learning purposes only