>
 >
Disappear

Disappear Guitar Tabs

Selena Gomez - Disappear chords, tabs, tablatures, lyrics

Guitar lessons | Add/correct | Request | Top 50 tabs Artists:  A B C D E F G H I J K L M N O P Q R S T U V W X Y Z 0-9

Disappear Guitar Tabs – Selena Gomez

CD, Sheet music, Poster

Do you like Disappear? Share with your friends now
ChordsChords v2TabsUkulele
-------------------------------------------------------------------------------
                            Disappear - Selena Gomez
-------------------------------------------------------------------------------




e|---------------------------------------------------------------------------|
B|-15b-15b-15~--13h15-15b-15-13-10--13h15-17h18h17h18p17h18-17~-15-13--------|
G|---------------------------------------------------------------------------|
D|---------------------------------------------------------------------------|
A|---------------------------------------------------------------------------|
E|---------------------------------------------------------------------------|
                                                                                        
e|--------------------17~-17b-17b-17~-15h17-17b-17-15-17-15------------------|
B|-20p18p15-20p18p15----------------------------------------17---------------|
G|-------------------------------------------------------------------12--14b-|
D|--------------------------------------------------------------12h14--------|
A|---------------------------------------------------------------------------|
E|---------------------------------------------------------------------------|
                                                                \_____/ 
                                                                  (8x)





Comments


Popular Selena Gomez tabs & chords
Everything Is Not What It Seems Chords
I Won't Apologize 1 Chords
Naturally Chords
One In The Same Chords
Whiplash Chords
I Got U Tabs
I Promise You 1 Tabs
Off The Chain Tabs
Round And Round Tabs
Everything Is Not What It Seems Ukulele


Song lyrics



↑ Back to top | Tablatures and chords are parodies/interpretations of the original songs. You may use it for private study, scholarship, research or language learning purposes only
© 2014 AZChords.com Contact us | Privacy policy | DMCA | Add/correct tabs | Request tabs | Top 50 tabs