>
 >
Disco Medley

Disco Medley Bass Tabs

Selena - Disco Medley chords, tabs, tablatures, lyrics

Guitar lessons | Add/correct | Request | Top 50 tabs Artists:  A B C D E F G H I J K L M N O P Q R S T U V W X Y Z 0-9

Disco Medley Bass Tabs – Selena

CD, Sheet music, Poster

Do you like Disco Medley? Share with your friends now
Bass Tabs
                                 Disco Medley                                   
                                   SELENA
					    BASS TAB


	okay guys I just extracted this  part  of  the  bass  tab  to  the guitar pro
so that the others can make use of it, Its not that accurate because i just made it
but it can serve as a guideline specially for the beginers


     Q       W                    H         Q    Q     
G||-------|-------------------|-----------------------|
D||-------|-------------------|-----------------------|
A||-------|-------------------|--12S--------5----5----|
E||-------|-------------------|-----------------------|


  E  E  E  E  E  E  E  E     E  E  E  E  E  E  E  E     W                 
--------------------------|--------------------------|-------------------|
--------------------------|--------------------------|-------------------|
--5--5--5--5--5--5--5--5--|--5--5--5--5--5--5--5--5--|--5----------------|
--------------------------|--------------------------|-------------------|


  W                   W                   W                   W                 
-------------------|-------------------|-------------------|-------------------|
-------------------|-------------------|-------------------|-------------------|
-------------------|--3----------------|-------------------|--1----------------|
--3----------------|-------------------|--1----------------|-------------------|


  W                   W                   H        H         
-------------------|-------------------|--------------------|
-------------------|-------------------|--------------------|
--6----------------|--3----------------|--5--------5--------|
-------------------|-------------------|--------------------|


  E  E  E  E  E  E   E   E     Q    S S S S S S Q    E   
----------------------------|---------------------------|
----------------------------|---------------------------|
--5--5--7--7--9--9--11--11--|---------------------------|
----------------------------|--3----3-3-3-3---3---------|


  Q    S S S S S S Q    E     Q    S S S S S S Q    E   
---------------------------|---------------------------|
---------------------------|---------------------------|
--3----3-3-3-3---3---------|---------------------------|
---------------------------|--1----1-1-1-1---1---------|


  Q    S S S S S S Q    E     Q    S S S S S S Q    E   
---------------------------|---------------------------|
---------------------------|---------------------------|
--1----1-1-1-1---1---------|--6----6-6-6-6---6---------|
---------------------------|---------------------------|


  Q    S S S S S S Q    E     Q    S S S S S S Q    E   
---------------------------|---------------------------|
---------------------------|---------------------------|
--3----3-3-3-3---3---------|--5----5-5-5-5---5---------|
---------------------------|---------------------------|


  Q    S S S S S S Q    E     Q    S S S S S S Q    E   
---------------------------|---------------------------|
---------------------------|---------------------------|
--5----5-5-5-5---5---------|---------------------------|
---------------------------|--3----3-3-3-3---3---------|


  Q    S S S S S E  Q    S    Q    S S S S S S Q    E   
---------------------------|---------------------------|
---------------------------|---------------------------|
--3----3-3-3-3---3---------|---------------------------|
---------------------------|--1----1-1-1-1---1---------|


  Q    S S S S S S Q    E     Q    S S S S S S Q    E   
---------------------------|---------------------------|
---------------------------|---------------------------|
--1----1-1-1-1---1---------|--6----6-6-6-6---6---------|
---------------------------|---------------------------|


  Q    S S S S S S Q    E     Q    S S S S S S Q    E   
---------------------------|---------------------------|
---------------------------|---------------------------|
--3----3-3-3-3---3---------|--5----5-5-5-5---5---------|
---------------------------|---------------------------|


  E  E  E  E  E  E   E   E     Q    S S S S S S Q    E   
----------------------------|---------------------------|
----------------------------|---------------------------|
--5--5--7--7--9--9--11--11--|---------------------------|
----------------------------|--3----3-3-3-3---3---------|


  Q    S S S S S S Q    E     Q    S S S S S S Q    E   
---------------------------|---------------------------|
---------------------------|---------------------------|
--3----3-3-3-3---3---------|---------------------------|
---------------------------|--1----1-1-1-1---1---------|


  Q    S S S S S S Q    E     Q    S S S S S S Q    E   
---------------------------|---------------------------|
---------------------------|---------------------------|
--1----1-1-1-1---1---------|--6----6-6-6-6---6---------|
---------------------------|---------------------------|


  Q    S S S S S S Q    E     Q    S S S S S S Q    E   
---------------------------|---------------------------|
---------------------------|---------------------------|
--3----3-3-3-3---3---------|--5----5-5-5-5---5---------|
---------------------------|---------------------------|


  Q    S S S S S S Q    E     E  E  E  E  E  E  E  E   
---------------------------|--------------------------|
---------------------------|-----5-----5-----5-----5--|
--5----5-5-5-5---5---------|--------------------------|
---------------------------|--3-----3-----3-----3-----|


  E  E  E  E  E  E  E  E     E  E  E  E  E  E  E  E   
--------------------------|-----5-----5-----5-----5--|
-----5-----5-----5-----5--|--------------------------|
--------------------------|--3-----3-----3-----3-----|
--3-----3-----3-----3-----|--------------------------|


  E  E  E  E  E  E  E  E     E  E  E  E  E  E  E  E   
-----5-----5-----5-----5--|-----5-----5-----5-----5--|
--------------------------|--------------------------|
--3-----3-----3-----3-----|--3-----3-----3-----3-----|
--------------------------|--------------------------|


  E  E  E  E  E  E  E  E     E  E  E  E  E  E  E  E   
-----5-----5-----5-----5--|-----5-----5-----5-----5--|
--------------------------|--------------------------|
--3-----3-----3-----3-----|--3-----3-----3-----3-----|
--------------------------|--------------------------|


  E  E  E  E  E  E  E  E     E  E  E  E  E  E  E  E   
-----5-----5-----5-----5--|-----5-----5-----5-----5--|
--------------------------|--------------------------|
--3-----3-----3-----3-----|--3-----3-----3-----3-----|
--------------------------|--------------------------|


  E  E  E  E  E  E  E  E     E  E  E  E  E  E  E  E   
-----5-----5-----5-----5--|-----5-----5-----5-----5--|
--------------------------|--------------------------|
--3-----3-----3-----3-----|--3-----3-----3-----3-----|
--------------------------|--------------------------|


  E  E  E  E  E  E  E  E     E  E  E  E  E  E  E  E   
-----5-----5-----5-----5--|-----5-----5-----5-----5--|
--------------------------|--------------------------|
--3-----3-----3-----3-----|--3-----3-----3-----3-----|
--------------------------|--------------------------|


  E  E  E  E  E  E  E  E     E  E  E  E  E  E  E  E   
-----5-----5-----5-----5--|--------------------------|
--------------------------|-----5-----5-----5-----5--|
--3-----3-----3-----3-----|--------------------------|
--------------------------|--3-----3-----3-----3-----|


  E  E  E  E  E  E  E  E     E  E  E  E  E  E  E  E   
--------------------------|--------------------------|
-----5-----5-----5-----5--|-----5-----5-----5-----5--|
--------------------------|--------------------------|
--3-----3-----3-----3-----|--3-----3-----3-----3-----|


  E  E  E  E  E  E  E  E     E  E  E  E  E  E  E  E   
--------------------------|--------------------------|
-----5-----5-----5-----5--|-----5-----5-----3-----3--|
--------------------------|--------------------------|
--3-----3-----3-----3-----|--3-----3-----1-----1-----|


  E  E  E  E  E  E  E  E     E  E  E  E  E  E  E  E   
-----------------7-----7--|-----5-----5-----5-----5--|
-----2-----2--------------|--------------------------|
--------------5-----5-----|--3-----3-----3-----3-----|
--0-----0-----------------|--------------------------|


  E  E  E  E  E  E  E  E     E  E  E  E  E  E  E  E   
-----5-----5-----5-----5--|-----5-----5-----5-----5--|
--------------------------|--------------------------|
--3-----3-----3-----3-----|--3-----3-----3-----3-----|
--------------------------|--------------------------|


  E  E  E  E  E  E  E  E     E  E  E  E  E  E  E  E   
-----5-----5-----5-----5--|-----5-----5-----5-----5--|
--------------------------|--------------------------|
--3-----3-----3-----3-----|--3-----3-----3-----3-----|
--------------------------|--------------------------|


  E  E  E  E  E  E  E  E     E  E  E  E  E  E  E  E   
-----5-----5-----5-----5--|-----5-----5-----5-----5--|
--------------------------|--------------------------|
--3-----3-----3-----3-----|--3-----3-----3-----3-----|
--------------------------|--------------------------|


  E  E  E  E  E  E  E  E     E  E  E  E  E  E  E  E   
-----5-----5-----5-----5--|--------------------------|
--------------------------|-----5-----5-----3-----3--|
--3-----3-----3-----3-----|--------------------------|
--------------------------|--3-----3-----1-----1-----|


  E  E  E  E  E  E  E  E     Q     Q    Q    Q       E  E  E  E  E  E  E  E   
-----------------7-----7--|-----------------------|--------------------------|
-----2-----2--------------|-----------------------|--------------------------|
--------------5-----5-----|--3\-------------------|--3--3--------1-----1--3--|
--0-----0-----------------|-----------------------|--------3--1-----3--------|


  E  E  E  E  E  E  E  E     E  E  E  E  E  E  E  E   
--------------------------|--------------------------|
--------------------------|--------------------------|
--3--3--------1-----1--3--|--3--3--------1-----1--3--|
--------3--1-----3--------|--------3--1-----3--------|


  E  E  E  E  E  E  E  E     E  E  E  E  E  E  E  E   
--------------------------|--------------------------|
--------------------------|--------------------------|
--3--3--------1-----1--3--|--3--3--------1-----1--3--|
--------3--1-----3--------|--------3--1-----3--------|


  E  E  E  E  E  E  E  E     E  E  E  E  E  E  E  E   
--------------------------|--------------------------|
--------------------------|--------------------------|
--3--3--------1-----1--3--|--3--3--------1-----1--3--|
--------3--1-----3--------|--------3--1-----3--------|


  E  E  E  E  E  E  E  E     E  E  E  E  E  E  E  E   
--------------------------|--------------------------|
--------------------------|--------------------------|
--3--3--------1-----1--3--|--3--3--------1-----1--3--|
--------3--1-----3--------|--------3--1-----3--------|


  E  E  E  E  E  E  E  E     E  E  E  E  E  E  E  E   
--------------------------|--------------------------|
--------------------------|--------------------------|
--3--3--------1-----1--3--|--3--3--------1-----1--3--|
--------3--1-----3--------|--------3--1-----3--------|


  E  E  E  E  E  E  E  E     E  E  E  E  E  E  E  E   
--------------------------|--------------------------|
--------------------------|--------------------------|
--3--3--------1-----1--3--|--3--3--------1-----1--3--|
--------3--1-----3--------|--------3--1-----3--------|


  E  E  E  E  E  E  E  E     E  E  E  E  E  E  E  E   
--------------------------|--------------------------|
--------------------------|--------------------------|
--3--3--------1-----1--3--|--3--3--------1-----1--3--|
--------3--1-----3--------|--------3--1-----3--------|


  E  E  E  E  E  E  E  E     E  E  E  E  E  E  E  E   
--------------------------|--------------------------|
--------------------------|--------------------------|
--3--3--------1-----1--3--|--3--3--------1-----1--3--|
--------3--1-----3--------|--------3--1-----3--------|


  E   E  Q    S S S S S Q    E     W                 
--------------------------------|-------------------|
--------------------------------|-------------------|
--1S--6--6----6-6-6-6-----------|-------------------|
--------------------------------|-------------------|


  Q    S S S S S Q    E  S    W                   Q    S S S S S Q    E  S  
---------------------------|-------------------|---------------------------|
---------------------------|-------------------|---------------------------|
--6----6-6-6-6-6-----------|-------------------|--6----6-6-6-6-6-----------|
---------------------------|-------------------|---------------------------|


  W                   Q    S S S S S Q    E  S    W                 
-------------------|---------------------------|-------------------|
-------------------|---------------------------|-------------------|
-------------------|--6----6-6-6-6-6-----------|-------------------|
-------------------|---------------------------|-------------------|


   Q    E  E  E  S E  S S S    Q    E  E  E  S E  S S S  
------------------------1-3-|-----------------------1-3-|
----------------------3-----|---------------------3-----|
--\1----1--1--1--1-1--------|--1----1--1--1--1-1--------|
----------------------------|---------------------------|


  Q    E  E  E  S E  S S S    Q    E  E  E  S E  S S S  
-----------------------1-3-|-----------------------1-3-|
---------------------3-----|---------------------3-----|
--1----1--1--1--1-1--------|--1----1--1--1--1-1--------|
---------------------------|---------------------------|


  Q    E  E  E  S E  S S S    Q    E  E  E  S E  S S S  
-----------------------1-3-|-----------------------1-3-|
---------------------3-----|---------------------3-----|
--1----1--1--1--1-1--------|--1----1--1--1--1-1--------|
---------------------------|---------------------------|


  Q    E  E  E  S E  S S S    Q    E  E  E  S E  S S S    Q    Q    Q    Q     
-----------------------1-3-|-----------------------1-3-|----------------------|
---------------------3-----|---------------------3-----|----------------------|
--1----1--1--1--1-1--------|--1----1--1--1--1-1--------|--0----0----0----0----|
---------------------------|---------------------------|----------------------|


  E  Q    E  E  Q    E     Q    S S S S Q       Q    S S S S Q     
------------------------|--------------------|--------------------|
------------------------|--------------------|--------------------|
--1--1----1--1----------|--6----6-6-6-6------|--------------------|
------------------------|--------------------|--4----4-4-4-4------|


  Q    S S S S E   E     Q    S S S S Q       Q    S S S S Q     
----------------------|--------------------|--------------------|
----------------------|--------------------|--------------------|
--6----6-6-6-6-6h--8--|--------------------|--6----6-6-6-6------|
----------------------|--6----6-6-6-6------|--------------------|


  Q    S S S S Q       Q    S S S S E   E     Q    Q    Q    Q     
--------------------|----------------------|----------------------|
--------------------|----------------------|----------------------|
--------------------|--6----6-6-6-6-6h--8--|----------------------|
--4----4-4-4-4------|----------------------|--6----1----3----4----|


  Q    S S S S H           Q    S S S S H           Q    S S S S H         
------------------------|------------------------|------------------------|
------------------------|------------------------|------------------------|
------------------------|------------------------|------------------------|
--4----4-4-4-4----------|--4----4-4-4-4----------|--3----3-3-3-3----------|


  Q    S S S S H           Q    S S S S H           Q    S S S S H         
------------------------|------------------------|------------------------|
------------------------|------------------------|------------------------|
--3----3-3-3-3----------|------------------------|------------------------|
------------------------|--4----4-4-4-4----------|--4----4-4-4-4----------|


  Q    S S S S H           Q    S S S S H           Q    E  E  E  E  S S S S  
------------------------|------------------------|-----------------------1-3-|
------------------------|------------------------|---------------------3-----|
------------------------|--3----3-3-3-3----------|--1----1--1--1--1----------|
--3----3-3-3-3----------|------------------------|---------------------------|


  Q    S S S S S S S S Q       Q    S S S S S S S S Q     
-------------------1-3------|-------------------1-3------|
-----------------3----------|-----------------3----------|
--1----1-1-1-1-1------------|--1----1-1-1-1-1------------|
----------------------------|----------------------------|


  Q    S S S S S S S S Q       Q    S S S S S S S S Q     
-------------------1-3------|-------------------1-3------|
-----------------3----------|-----------------3----------|
--1----1-1-1-1-1------------|--1----1-1-1-1-1------------|
----------------------------|----------------------------|


  Q    S S S S S S S S Q       Q    Q    Q    Q       E  Q    E  E  Q    E   
-------------------1-3------|----------------------|------------------------|
-----------------3----------|----------------------|------------------------|
--1----1-1-1-1-1------------|----------------------|------------------------|
----------------------------|--5----5----5----5----|--6--6----6--6----------|


  Q    S S S S H           Q    S S S S H           Q    S S S S H         
------------------------|------------------------|------------------------|
------------------------|------------------------|------------------------|
--6----6-6-6-6----------|--6----6-6-6-6----------|--6----6-6-6-6----------|
------------------------|------------------------|------------------------|


  Q     S Q    S S S S E  S    Q    S S S S H           Q    S S S S H         
----------------------------|------------------------|------------------------|
----------------------------|------------------------|------------------------|
--6s----8-------------------|--6----6-6-6-6----------|--6----6-6-6-6----------|
----------6----6-6-6-6------|------------------------|------------------------|


  Q    S S S S H           S S H        Q    E     Q    S S S S  
------------------------|------0----------------|---------------|
------------------------|--3-4------------------|---------------|
--6----6-6-6-6----------|-----------------------|---------------|
------------------------|-----------------------|--4----4-4-4-4-|


  Q    S S S S    Q    S S S S    Q    S S S S    Q    S S S S    Q    S S S S  
---------------|---------------|---------------|---------------|---------------|
---------------|---------------|---------------|---------------|---------------|
---------------|---------------|--3----3-3-3-3-|---------------|---------------|
--4----4-4-4-4-|--3----3-3-3-3-|---------------|--4----4-4-4-4-|--4----4-4-4-4-|


  Q    S S S S    Q    S S S S    Q    S S S S S S S S Q     
---------------|---------------|-------------------1-3------|
---------------|---------------|-----------------3----------|
---------------|--3----3-3-3-3-|--1----1-1-1-1-1------------|
--3----3-3-3-3-|---------------|----------------------------|


  Q    S S S S S S S S Q       Q    S S S S S S S S Q     
-------------------1-3------|-------------------1-3------|
-----------------3----------|-----------------3----------|
--1----1-1-1-1-1------------|--1----1-1-1-1-1------------|
----------------------------|----------------------------|


  Q    S S S S S S S S Q       Q    S S S S S S S S Q     
-------------------1-3------|-------------------1-3------|
-----------------3----------|-----------------3----------|
--1----1-1-1-1-1------------|--1----1-1-1-1-1------------|
----------------------------|----------------------------|


  Q    Q    Q    Q       Q    Q    Q    Q    E   
----------------------|-------------------------|
----------------------|-------------------------|
----------------------|-------------------------|
--6----6----6----6----|--5----5----5----5-------|


  E  Q    E  E  W                   E  E  S S S S    E  E  S S S S  
---------------------------------|----------------|----------------|
---------------------------------|----------------|----------------|
---------------------------------|----------------|----------------|
--6--6----6--6-------------------|--1--1--1-1-1-1-|--3--3--3-3-3-3-|


  E  E  S S S S    E  E  S S S S    E  E  S S S S W                 
----------------|----------------|---------------------------------|
----------------|----------------|---------------------------------|
----------------|----------------|---------------------------------|
--1--1--1-1-1-1-|--3--3--3-3-3-3-|--6--6--6-6-6-6------------------|


  E  E  S S S S W                   E  E  S S S S W                 
---------------------------------|---------------------------------|
---------------------------------|---------------------------------|
---------------------------------|---------------------------------|
--5--5--5-5-5-5------------------|--3--3--3-3-3-3------------------|


  E  E  S S S S W                   E  E  S S S S  
---------------------------------|----------------|
---------------------------------|----------------|
--3--3--3-3-3-3------------------|--4--4--4-4-4-4-|
---------------------------------|----------------|


  E  E  S S S S W                   E  E  S S S S W                 
---------------------------------|---------------------------------|
---------------------------------|---------------------------------|
---------------------------------|---------------------------------|
--4--4--4-4-4-4------------------|--3--3--3-3-3-3------------------|


  E  E  S S S S W                   E  E  S S S S  
---------------------------------|----------------|
---------------------------------|----------------|
--3--3--3-3-3-3------------------|--4--4--4-4-4-4-|
---------------------------------|----------------|


  E  E  S S S S W                 
---------------------------------|
---------------------------------|
---------------------------------|
--4--4--4-4-4-4------------------|


  E  E  S S S S W                W                   W                 
--------------------------------------------------|-------------------|
--------------------------------------------------|-------------------|
--3--3--3-3-3-3-----------------------------------|--8----------------|
--------------------------------------------------|-------------------|


  W                   W                   W                   W                 
-------------------|-------------------|-------------------|-------------------|
-------------------|-------------------|-------------------|-------------------|
-------------------|-------------------|-------------------|-------------------|
-------------------|-------------------|-------------------|-------------------|


  W                   W                   W                 
-------------------|-------------------|-------------------|
-------------------|-------------------|-------------------|
-------------------|-------------------|-------------------|
-------------------|-------------------|-------------------|


  E  E  E  E  E  E  E  E     E  E  E  E  Q    E  E     E  E  E  E  E  Q    E   
--------------------------|-------------------------|-------------------------|
--------------------------|-------------------------|-------------------------|
--------3--3--5--5--7--7--|--7--7--0--5--7----------|-----------------0----3--|
--6--6--------------------|-------------------0--3--|--5--5--0--3--5----------|


  E  E  E  E  Q    E  E     E  E  E  E  Q    Q       E  E  E  E  Q    E  E   
-------------------------|------------------------|-------------------------|
-------------------------|------------------------|-------------------------|
--5--5--0--3--5----0--3--|--5--5--0--3--5----7----|--7--7--0--5--7----------|
-------------------------|------------------------|-------------------0--3--|


  E  E  E  E  E  Q    E     E  E  E  E  Q    E  E     E  E  E  E  H         
-------------------------|-------------------------|-----------------------|
-------------------------|-------------------------|-----------------------|
-----------------0----3--|--5--5--0--3--5----0--3--|--5--5--0--3--5--------|
--5--5--0--3--5----------|-------------------------|-----------------------|


  E  E  E  E  E  Q    E     E  E  E  E  Q    Q       E  E  E  E  E  Q    E   
-------------------------|------------------------|-------------------------|
-------------------------|------------------------|-------------------------|
-------------------------|-------------------0----|--3--3--0--1--3--0----1--|
--3--3--0--1--3--0----1--|--3--3--1--0--3---------|-------------------------|


  E  E  E  E  E  Q    E     E  E  E  E  E  Q    E  W                 
-------------------------|------------------------------------------|
-------------------------|------------------------------------------|
--3--3--0--1--3----------|-----------------0----3-------------------|
-------------------------|--5--5--0--3--5---------------------------|


  E  E  E  E  Q    E  E  W                 
------------------------------------------|
------------------------------------------|
--5--5--0--3--5----0--3-------------------|
------------------------------------------|


  E  E  E  E  Q    E  E  W                W                 
-----------------------------------------------------------|
-----------------------------------------------------------|
--5--5--0--3--5----7---------------------------------------|
-----------------------------------------------------------|


  E  E  E  E  Q    Q    W                   E  E  E  E  Q    E  E   
-----------------------------------------|-------------------------|
-----------------------------------------|-------------------------|
--5--5--0--3--5----7---------------------|--7--7--0--5--7----------|
-----------------------------------------|-------------------0--3--|


  E  E  E  E  E  Q    E     E  E  E  E  Q    E  E     E  E  E  E  Q    Q     
-------------------------|-------------------------|------------------------|
-------------------------|-------------------------|------------------------|
-----------------0----3--|--5--5--0--3--5----0--3--|--5--5--0--3--5----7----|
--5--5--0--3--5----------|-------------------------|------------------------|


  E  E  E  E  Q    E  E     E  E  E  E  E  Q    E     E  E  E  E  Q    E  E   
-------------------------|-------------------------|-------------------------|
-------------------------|-------------------------|-------------------------|
--7--7--0--5--7----------|-----------------0----3--|--5--5--0--3--5----0--3--|
-------------------0--3--|--5--5--0--3--5----------|-------------------------|


  E  E  E  E  H           E  E  E  E  E  Q    E     E  E  E  E  Q    Q     
-----------------------|-------------------------|------------------------|
-----------------------|-------------------------|------------------------|
--5--5--0--3--5--------|-------------------------|-------------------0----|
-----------------------|--3--3--0--1--3--0----1--|--3--3--1--0--3---------|


  E  E  E  E  E  Q    E     E  E  E  E  E  Q    E   
-------------------------|-------------------------|
-------------------------|-------------------------|
--3--3--0--1--3--0----1--|--3--3--0--1--3----------|
-------------------------|-------------------------|


  E  E  E  E  E  Q    E  W                 
------------------------------------------|
------------------------------------------|
-----------------0----3-------------------|
--5--5--0--3--5---------------------------|


  E  E  E  E  Q    E  E  W                   E  E  Q    Q    Q     
------------------------------------------|-----------------------|
------------------------------------------|-----------------------|
--5--5--0--3--5----0--3-------------------|--7--7-------5----7----|
------------------------------------------|--------7--------------|


  E  E.  E.  E.  E.  E.  E.  E.     E  E  Q    Q    Q     
---------------------------------|-----------------------|
-----7-------7-------9-------9---|-----------------------|
---------------------------------|--7--7-------5----7----|
--5------5-------7-------7-------|--------7--------------|


  E  E.  E.  E.  E.  E.  E.  E.     E  E  Q    Q    Q     
---------------------------------|-----------------------|
-----7-------7-------9-------9---|-----------------------|
---------------------------------|--7--7-------5----7----|
--5------5-------7-------7-------|--------7--------------|


  E  E.  E.  E.  E.  E.  E.  E.     E  E  Q    Q    Q     
---------------------------------|-----------------------|
-----7-------7-------9-------9---|-----------------------|
---------------------------------|--7--7-------5----7----|
--5------5-------7-------7-------|--------7--------------|


  E  E.  E.  E  E.  E.  E  E.     E  E.  E.  E  E.  E.  E  E.     Q    Q     
-------------------------------|-------------------------------|------------|
-----7-------7------7------7---|-----9-------9------9------9---|--2----2----|
-------------------------------|-------------------------------|------------|
--5------5------5-------5------|--7------7------7-------7------|------------|





Comments


Popular Selena tabs & chords
Dreaming Of You Chords
Dreaming Of You 3 Chords
El Chico Del Apartamento 512 Chords
I Could Fall In Love Chords
I'll Never Get Over You (Getting Over Me) Chords
Bidi Bidi Bom Bom 2 Tabs
Fotos Y Recuerdos Tabs
Como La Flor Ukulele
Ill Never Get Over You Getting Over Me Ukulele
Si Una Vez Ukulele


Song lyrics



↑ Back to top | Tablatures and chords are parodies/interpretations of the original songs. You may use it for private study, scholarship, research or language learning purposes only
© 2014 AZChords.com Contact us | Privacy policy | DMCA | Add/correct tabs | Request tabs | Top 50 tabs