» » »

Seger Bob, Sunspot Baby Bass tabs (ver.1)

Artists:  A B C D E F G H I J K L M N O P Q R S T U V W X Y Z # 

Sunspot Baby Bass tabs (ver.1)

Seger Bob Tabs
 Rating:
4/5 (4 votes)
Sunspot Baby lessons Tabs too difficult? Try these video lessons and learn fast
1
                bob_seger/sunspot_baby.btab

Basstab by Jan Bjorklund, Finland; 
You are welcome to request for basstabs!
Bienvenidos a pedirme transcripciones para el bajo!
Be sure to use a monospaced font!

TablEdited by Jan Bjorklund for Josh
Tuning : E A D G 	Time Signature: 4/4

 |tempo 118      |       |        |       |       |       |        
|--------------------------------|--------------------------------|
|-------------------Intro 23 bars without bass--------------------|
|--------------------------------|--------------------------------|
|--------------------------------|--------------------------------|

 |       |       |       |        |       |       |       | 
|--------------------------------|--------------------------------|
|--------------------------------|--------------------------------|
|------------4-------------------|0---0-----------0---------------|
|0---0-----------0-----------4---|------------2---------------2---|

 |       |       |       |        |       |       |       |        
|--------------------------------|--------------------------------|
|----------------------------2---|----------------------------2---|
|------------4-----------4-------|------------4-----------4-------|
|0---0-----------0---------------|0---0-----------0---------------|

 |       |       |       |        |       |       |       |        
|--------------------------------|--------------------------------|
|--------------------------------|--------------------------------|
|0---0-----------0---------------|0---0-----------0---0-----------|
|------------2---------------2---|------------2-----------3---2---|

 |       |       |       |        |       |       |       |        
|--------------------------------|--------------------------------|
|----------------------------2---|--------------------------------|
|------------4-----------4-------|------------4-------------------|
|0---0-----------0---------------|0---0-----------0---0---2---4---|

 |       |       |       |        |       |       |       |        
|--------------------------------|--------------------------------|
|--------------------------------|--------------------------------|
|0---0-------0---0---------------|--------------------------------|
|------------------------3---2---|0---0---2---3---0-------3---4---|

 |       |       |       |        |       |       |       |        
|--------------------------------|--------------------------------|
|--------------------------------|--------------------------------|
|0---0-----------0---------------|------------------------0---1---|
|------------2---------------2---|0---0---2---3---0---4-----------|

 |       |       |       |        |       |       |       |        
|--------------------------------|--------------------------------|
|--------------------------------|--------------------------------|
|2---2-------2---2---2-------2---|0---0-------0---0---0-----------|
|--------------------------------|------------------------3---2---|

 |       |       |       |        |       |       |       |        
|--------------------------------|--------------------------------|
|----------------------------2---|--------------------------------|
|------------------------4-------|--------------------------------|
|0---0---2---3---0---0-----------|0---0---2---3---0---0---3---4---|

 |       |       |       |        |       |       |       |        
|--------------------------------|--------------------------------|
|--------------------------------|------------2-------------------|
|0---0-----------0---0-------0---|--------4-----------------------|
|------------2-----------0-------|0---0-----------0-------2---3---|

 |       |       |       |        |       |       |       |        
|--------------------------------|--------------------------------|
|--------------------------------|--------------------------------|
|0---0-----------0---------------|--------------------------------|
|------------2-----------0---0---|0---0---2---3---0---0---3---4---|

 |       |       |       |        |       |       |       |        
|--------------------------------|--------------------------------|
|--------------------------------|--------------------------------|
|0---0---0-------0-------0-------|--------------------------------|
|------------2---------------0---|0---0-------0---0---0---3---4---|

 |       |       |       |        |       |       |       |        
|----------------------------4---|--------------------------------|
|------------------------4-------|--------4-----------------------|
|2---2---2---2---2---2-----------|2-----------2---2---2---2---2---|
|--------------------------------|--------------------------------|

 |       |       |       |        |       |       |       |        
|--------------------------------|--------------------------------|
|--------------------------------|--------------------------------|
|------------4-------------------|0---0-----------0---------------|
|0---0-----------0-----------4---|------------2---------------2---|

 |       |       |       |        |       |       |       |        
|--------------------------------|--------------------------------|
|----------------------------2---|-------    and so on ...  ------|
|------------4-----------4-------|--------------------------------|
|0---0-----------0---------------|--------------------------------|

 
            
Submit corrections

comments powered by Disqus
↑ Back to top | Seger Bob Bass for Sunspot Baby. Lyrics for acoustic guitar and electric guitar. 1 Tablatures and chords are parodies/interpretations of the original songs. You may use it for private study, scholarship, research or language learning purposes only