>
 >
Warrior (Southern Arrow-Wood)

Warrior (Southern Arrow-Wood) Guitar Tabs

Secret And Whisper - Warrior (Southern Arrow-Wood) chords, tabs, tablatures, lyrics

Guitar lessons | Add/correct | Request | Top 50 tabs Artists:  A B C D E F G H I J K L M N O P Q R S T U V W X Y Z 0-9

Warrior (Southern Arrow-Wood) Guitar Tabs – Secret And Whisper

CD, Sheet music, Poster

Do you like Warrior (Southern Arrow-Wood)? Share with your friends now
TabsTabs v2
I've learnt only bits and pieces, altering other tabs i've found for ease of playing 
cut it up on editing software and BOOM! come up with this mess

NB my guitar only has 21 frets so i've shifted some of the higher stuff up a string

to start, here's my weirdo notation so you can see what on earth i'm on about...

My weirdo Notation:

* - let ring
/ - slide up
\ - slide down
~ - 'wobble' almost pinch harmonickie like
H - half time. Roughly
Q - quarter time. Sort of.
p - pull off
h - hammer on
b - bend
x - dead note; unless otherwise stated as Palm Mute

anyway! ON WE GO

INTRO

Guitar 1
D|------------------------------------------------------------------|
A|------------------------------------------------------------------|
F|------------------------------------------------------------------|
C|--5-5-5-5-7-----7---5-5-5-5-7-----7---1-1-1-1-3---3---3-----------|
G|--5-5-5-5---8-----8-5-5-5-5---8-----8-1-1-1-1---1---1-------------|
C|--5-5-5-5-----5-----5-5-5-5-----5-----1-1-1-1---------------------|

             H H H H  H H H H
D|---------------------------|
A|---------------------------|
F|--------------------7-7-7-7|
C|--3-3-3-3--8-8-8-8---------| x2
G|--3-3-3-3------------------|
C|--3-3-3-3------------------|

Guitar 2
D|------------------------------------------------------------------|
A|------------------------------------------------------------------|
F|------------------------------------------------------------------|
C|--5-5-5-5--5-5-5-5-5-5--5-5-5-5--5-5-5-5-5-5--1-1-1-1--1-1-1-1-1-1|
G|--5-5-5-5--5-5-5-5-5-5--5-5-5-5--5-5-5-5-5-5--1-1-1-1--1-1-1-1-1-1|
C|--5-5-5-5--5-5-5-5-5-5--5-5-5-5--5-5-5-5-5-5--1-1-1-1--1-1-1-1-1-1|

                          H H H H  H H H H
D|----------------------------------------|
A|----------------------------------------|
F|----------------------------------------|
C|--3-3-3-3--3-3-3-3-3-3--5-5-5-5--8-8-8-8| x2 ******SEE BOTTOM******
G|--3-3-3-3--3-3-3-3-3-3------------------|
C|--3-3-3-3--3-3-3-3-3-3------------------|

VERSE

Guitar 1                                 Q  Q  Q  Q  Q  Q  Q  Q  Q  Q  Q
D|----15------13-10-13/18\17----15----------------------------------------|
A|------13-15---------------------13-15--11-11-11-11-13-13-13-13-15-15-15-|
F|--12------------------------12------------------------------------------|
C|------------------------------------------------------------------------|
G|------------------------------------------------------------------------|
C|------------------------------------------------------------------------|

  Q  Q  Q  Q  Q
D|-------------------------|
A|15-----------------------|
F|---14-14-14-14-----------| x2
C|-------------------------|
G|-------------------------|
C|-------------------------|


Pre-Chorus

Guitar 1 & 2        [you can decide if playing the note in brackets
                     sounds right]

    H H    H H  H H  H H  H H             H H    H H  H H  H H  H H
D|----------------------------------------------------------------------|
A|----------------------------------------------------------------------|
F|------------------------------3--3-\----------------------------------|
C|--5-5----5-5--5-5--5-5--5-5---5--5-\---/5-5----5-5--5-5--5-5--5-5--3*-|
G|--5-5----5-5--5-5--5-5--5-5--(5)(5)\---/5-5----5-5--5-5--5-5--5-5--3*-|
C|--5-5----5-5--5-5--5-5--5-5------------/5-5----5-5--5-5--5-5--5-5--3*-|

Chorus
D|----------------------------------------------------------------------|
A|----------------------------------------------------------------------|
F|----------------------------------------------------------------------|
C|-----------GUITAR; BUT WELL TRICKY HAVNT GOT A CLUE. YET--------------|
G|----------------------------------------------------------------------|
C|----------------------------------------------------------------------|

VERSE 2 - pay attention to the lay out: the whole verse is written out for each guitar 
turn, rather than piece by piece.

Guitar 1
D|------------------------------------------------------------------|
A|------------------------------------------------------------------|
F|------------------------------------------------------------------|
C|--5-5-5-5-7-----7---5-5-5-5-7-----7---1-1-1-1-3---3---3-----------|
G|--5-5-5-5---8-----8-5-5-5-5---8-----8-1-1-1-1---1---1-------------|
C|--5-5-5-5-----5-----5-5-5-5-----5-----1-1-1-1---------------------|

             H H H H  H H H H
D|---------------------------|
A|---------------------------|
F|--------------------7-7-7-7|
C|--3-3-3-3--8-8-8-8---------| x2
G|--3-3-3-3------------------|
C|--3-3-3-3------------------|

cont.                                    Q  Q  Q  Q  Q  Q  Q  Q  Q  Q  Q
D|----15------13-10-13/18\17----15----------------------------------------|
A|------13-15---------------------13-15--11-11-11-11-13-13-13-13-15-15-15-|
F|--12------------------------12------------------------------------------|
C|------------------------------------------------------------------------|
G|------------------------------------------------------------------------|
C|------------------------------------------------------------------------|

  Q  Q  Q  Q  Q
D|-------------------------|
A|15-----------------------|
F|---14-14-14-14-----------| x2
C|-------------------------|
G|-------------------------|
C|-------------------------|

------end of verse------
meanwhile.....

Guitar 2
D|------------------------------------------------------------------|
A|------------------------------------------------------------------|
F|------------------------------------------------------------------|
C|--5-5-5-5--5-5-5-5-5-5--5-5-5-5--5-5-5-5-5-5--1-1-1-1--1-1-1-1-1-1|
G|--5-5-5-5--5-5-5-5-5-5--5-5-5-5--5-5-5-5-5-5--1-1-1-1--1-1-1-1-1-1|
C|--5-5-5-5--5-5-5-5-5-5--5-5-5-5--5-5-5-5-5-5--1-1-1-1--1-1-1-1-1-1|

                          H H H H  H H H H
D|----------------------------------------|
A|----------------------------------------|
F|----------------------------------------|
C|--3-3-3-3--3-3-3-3-3-3--5-5-5-5--8-8-8-8| x2
G|--3-3-3-3--3-3-3-3-3-3------------------|
C|--3-3-3-3--3-3-3-3-3-3------------------|

cont.
D|------------------------------------------------------------------|
A|------------------------------------------------------------------|
F|------------------------------------------------------------------|
C|--5-5-5-5-7-----7---5-5-5-5-7-----7---1-1-1-1-3---3---3-----------|
G|--5-5-5-5---8-----8-5-5-5-5---8-----8-1-1-1-1---1---1-------------|
C|--5-5-5-5-----5-----5-5-5-5-----5-----1-1-1-1---------------------|

             H H H H  H H H H
D|---------------------------|
A|---------------------------|
F|--------------------7-7-7-7|
C|--3-3-3-3--8-8-8-8---------| x2
G|--3-3-3-3------------------|
C|--3-3-3-3------------------|

--------end of verse--------
yeah tricky to follow.. sorry

Pre-Chorus *part 1*

Guitar 1 & 2        [you can decide if playing the note in brackets
                     sounds right]

    H H    H H  H H  H H  H H             H H    H H  H H  H H  H H
D|----------------------------------------------------------------------|
A|----------------------------------------------------------------------|
F|------------------------------3--3-\----------------------------------|
C|--5-5----5-5--5-5--5-5--5-5---5--5-\---/5-5----5-5--5-5--5-5--5-5--3*-|
G|--5-5----5-5--5-5--5-5--5-5--(5)(5)\---/5-5----5-5--5-5--5-5--5-5--3*-|
C|--5-5----5-5--5-5--5-5--5-5------------/5-5----5-5--5-5--5-5--5-5--3*-|

Pre-Chorus *part 2* - this was quite hard to work out so may be incorrect.
As before, you can choose whether or not it sounds best with the notes in brackets.

[Any] Guitar (Clean - let chords ring out)


D|-(3)---(3)----5-----8----|
A|--------3----(5)----10---|
F|--3-----3-----7-----10---|
C|--5-----------5----(8)---|
G|-------------------------|
C|-------------------------|

Chorus
D|----------------------------------------------------------------------|
A|----------------------------------------------------------------------|
F|----------------------------------------------------------------------|
C|-----------------------WELL TRICKY HAVNT GOT A CLUE. YET--------------|
G|----------------------------------------------------------------------|
C|----------------------------------------------------------------------|

Guitar 2 links Chorus to Solo with

D|----------------------------------|
A|----------------------------------|
F|----------------------------------|
C|--5-5-5-5-------------------------|
G|--5-5-5-5-------------------------|
C|--5-5-5-5-------------------------|



|----------18----------------18--------------17--------------17--|
|-15h16p15----16-15-15h16p15----16-15-151615----16-15-151615-----|
|----------------------------------------------------------------|
|----------------------------------------------------------------|
|----------------------------------------------------------------|
|----------------------------------------------------------------|

|--------------13h17p13------------------------------------------|
|o----------15----------15-----------15-16-18-13-13-11-----------|
|--------14----------------14------------------------------------|
|-----15----------------------15---------------------------------|
|o-17----------------------------17------------------------------|
|----------------------------------------------------------------|

|----------------18----------------7h10p7------------------------|
|--13br--------------------------8--------8----------------------|
|-------15h17p15----17-15------7------------7--------------------|
|----------------------------9----------------9------------------|
|--------------------------10-------------------10---------------|
|----------------------------------------------------------------|

|--13-15-18-17-15-22-20-18-20-15-18-17-13----|
|-------------------------------------------o|
|--------------------------------------------|
|--------------------------------------------|  (that's twice round the
|-------------------------------------------o|   the notated portion)
|--------------------------------------------|

MEANWHILE
Solo Rhythm:

Guitar 2
D|-------------------------------------------|
A|-------------------------------------------|
F|-------------------------------------------|
C|--5-5-5-5\----------3--5-5-5-5\------------|
G|--5-5-5-5\------1---3--5-5-5-5\------1-3---|
C|--5-5-5-5\--1-3-----3--5-5-5-5\--1-3---3---|

Guitar 2
D|-----------------------------------|
A|-----------------------------------|
F|-----------------------------------|
C|--1-1-1-1-----------3-3-3-3--------|
G|--1-1-1-1-------1-0-3-3-3-3-------1|
C|--1-1-1-1---1-3-----3-3-3-3---1-3--|


Guitar 2
D|------------------------------------------------------|
A|------------------------------------------------------|
F|------------------------------------------------------|
C|--5-5-55-5-5-55-5-5---------5-5-55-5-5-55-5-5---------|
G|--5-5-55-5-5-55-5-5-----1-0-5-5-55-5-5-55-5-5-----1-0-|
C|--5-5-55-5-5-55-5-5-1-3-----5-5-55-5-5-55-5-5-1-3-----|
pm      xx     xx                 xx     xx

Guitar 2
D|--------------------------------------------------------|
A|--------------------------------------------------------|
F|--------------------------------------------------------|
C|--1-1-11-1-1-11-1-1----------3-3-33-3-3-33-3-3----------|
G|--1-1-11-1-1-11-1-1------1-0-3-3-33-3-3-33-3-3-----~1~--|
C|--1-1-11-1-1-11-1-1--1-3-----3-3-33-3-3-33-3-3-1-3------|
pm      xx     xx                 xx     xx

Pre-Chorus
Guitar 1

     H H H H H    H H H
D|----------------------------|
A|---6-6-6-6-6--8-8-8-8-------|
F|---3-3-3-3-3--7-7-7-7-------|
C|---5-5-5-5-5--5-5-5-5-------|
G|----------------------------|
C|----------------------------|

THEN

Guitar 1

D|----------------------------------|
A|-----3*------6*-------------------|
F|--------3h5-----------------------|
C|----------------------------------|
G|----------------------------------|
C|----------------------------------|

Guitar 2

D|-------------------------------|
A|-------------------------------|
F|-------------------------------|
C|-----5-5-5---8*----------------|
G|-----5-5-5---8*----------------|
C|-----5-5-5---8*----------------|

Chorus
D|----------------------------------------------------------------------|
A|----------------------------------------------------------------------|
F|----------------------------------------------------------------------|
C|-----------GUITAR; BUT WELL TRICKY HAVNT GOT A CLUE. YET--------------|
G|----------------------------------------------------------------------|
C|----------------------------------------------------------------------|

Outro

Guitar 1 & 2
D|----------------|
A|----------------|
F|----------------|
C|--xxxxxxxx------|
G|--xxxxxxxx------|
C|--xxxxxxxx------|

Guitar 1
D|------------------------------------------------------------------|
A|------------------------------------------------------------------|
F|------------------------------------------------------------------|
C|--5-5-5-5-7-----7---5-5-5-5-7-----7---1-1-1-1-3---3---3-----------|
G|--5-5-5-5---8-----8-5-5-5-5---8-----8-1-1-1-1---1---1-------------|
C|--5-5-5-5-----5-----5-5-5-5-----5-----1-1-1-1---------------------|

             H H H H  H H H H
D|---------------------------|
A|---------------------------|
F|--------------------7-7-7-7|
C|--3-3-3-3--8-8-8-8---------| x2
G|--3-3-3-3------------------|
C|--3-3-3-3------------------|

Guitar 2
D|------------------------------------------------------------------|
A|------------------------------------------------------------------|
F|------------------------------------------------------------------|
C|--5-5-5-5--5-5-5-5-5-5--5-5-5-5--5-5-5-5-5-5--1-1-1-1--1-1-1-1-1-1|
G|--5-5-5-5--5-5-5-5-5-5--5-5-5-5--5-5-5-5-5-5--1-1-1-1--1-1-1-1-1-1|
C|--5-5-5-5--5-5-5-5-5-5--5-5-5-5--5-5-5-5-5-5--1-1-1-1--1-1-1-1-1-1|

                          H H H H  H H H H
D|----------------------------------------|
A|----------------------------------------|
F|----------------------------------------|
C|--3-3-3-3--3-3-3-3-3-3--5-5-5-5--8-8-8-8| x2
G|--3-3-3-3--3-3-3-3-3-3------------------|
C|--3-3-3-3--3-3-3-3-3-3------------------|


Guitar 1 & 2
    H H H H             H H H H
D|----------------------------------------------------------------|
A|----------------------------------------------------------------|
F|----------------------------------------------------------------|
C|--5-5-5-5-------------5-5-5-5----3-5------5-5-5-5-------------0-|
G|--5-5-5-5--5-8---8----5-5-5-5--5-----3-5--5-5-5-5--5-8---8----0-|
C|--5-5-5-5------5---5--5-5-5-5-------------5-5-5-5------5---5--0-|

-------------------------------------------------------------------------

The ****see bottom***** thing... if you're practising on your own and want the twangy 
that comes at the end of the verse which is usually created by the guitarists playing 
bits; you can achieve the same noise by playing

    H H H H  H H H H
D|-------------------|
A|-----------3-3-3-3-|
F|--3-3-3-3--3-3-3-3-|
C|--5-5-5-5----------| x2
G|-------------------|
C|-------------------|

INSTEAD OF

Guitar 1

    H H H H  H H H H
D|------------------|
A|------------------|
F|-----------7-7-7-7|
C|--8-8-8-8---------| x2
G|------------------|
C|------------------|

Guitar 2

    H H H H  H H H H
D|------------------|
A|------------------|
F|------------------|
C|--5-5-5-5--8-8-8-8| x2
G|------------------|
C|------------------|

Once again, thanks to klinikly-insane for the solo posted on an alternate tab for this song....

My weirdo Notation:

* - let ring
/ - slide up
\ - slide down
~ - 'wobble' almost pinch harmonickie like
H - half time. Roughly
Q - quarter time. Sort of.
p - pull off
h - hammer on
b - bend
x - dead note; unless otherwise stated as Palm Mute





Comments


Popular Secret And Whisper tabs & chords
Great White Whale Tabs
Lovers Intro Tabs
Spider Besider Tabs
Spider Besider Intro Tabs
Vanishings Tabs
Vanishings 1 Tabs
Xoxoxo Intro Tabs
Youth Cats Tabs
Youth Cats Intro Tabs
The Actress Ukulele


Song lyrics



↑ Back to top | Tablatures and chords are parodies/interpretations of the original songs. You may use it for private study, scholarship, research or language learning purposes only
© 2014 AZChords.com Contact us | Privacy policy | DMCA | Add/correct tabs | Request tabs | Top 50 tabs