>
 >
Stay Close Dont Go

Stay Close Dont Go Guitar Tabs

Secondhand Serenade - Stay Close Dont Go chords, tabs, tablatures, lyrics

Guitar lessons | Add/correct | Request | Top 50 tabs Artists:  A B C D E F G H I J K L M N O P Q R S T U V W X Y Z 0-9

Stay Close Dont Go Guitar Tabs – Secondhand Serenade

CD, Sheet music, Poster

Do you like Stay Close Dont Go? Share with your friends now
ChordsChords v2Chords v3Chords v4Chords v5Chords v6Chords v7TabsUkulele
-------------------------------------------------------------------------------
                                            STAY CLOSE, DON'T GO - Secondhand Serenade
-------------------------------------------------------------------------------

Tuning: Down a half step: Eb,Ab,Db,Gb,Bb,eb

    INTRO
eb|-------------------------------------------------------------------------|
Bb|------------------9---9---10---9---7---7---7---7---10-9---10-9---10-9----|
Gb|--9---9---9---9-----------------------------------------9------9---------|
Db|----9---9---9---9---9---9----9---9---9---9---9---9-----------------------|
Ab|-------------------------------------------------------------------------|
Eb|-------------------------------------------------------------------------|

   INTRO could also be played this way with out changing tuning and chords
in VERSE and CHORUS just need to be played as power chords and a half step
down. I like it with the tuning change better.

e|------------------3---3---4---3---1---1---1---1-----4-3---4-3---4-3-------|
B|--4---4---4---4-----------------------------------------4-----4-----------|
G|----3---3---3---3---3---3---3---3---3---3---3---3-------------------------|
D|--------------------------------------------------------------------------|
A|--------------------------------------------------------------------------|
E|--------------------------------------------------------------------------|

    VERSE <-- strum however you like
eb|-----|-----|-----|-----|
Bb|-----|-----|-----|-----|
Gb|--9--|--6--|--4--|--2--|
Db|--9--|--6--|--4--|--2--|
Ab|--7--|--4--|--2--|--0--|
Eb|-----|-----|-----|-----|

    PRE-CHORUS <-- Have another guitar play the intro through this
eb|------------|------------|--|------------|
Bb|------------|------------|--|------------|
Gb|--44444444--|--22222222--|--|--22222222--|
Db|--44444444--|--22222222--|x2|--22222222--| <-- Last time
Ab|--22222222--|--00000000--|--|--00000000--|
Eb|------------|------------|--|------------|
               \____________/  \________xx__/
                    1st             2nd

    CHORUS <-- strum however you like...Except these measures
eb|-----|-----|-----|-----||-----|-----|----------|-----|
Bb|-----|-----|-----|-----||-----|-----|----------|-----|
Gb|--9--|--4--|--6--|--2--||--9--|--4--|--66--44--|--2--|
Db|--9--|--4--|--6--|--2--||--9--|--4--|--66--44--|--2--|
Ab|--7--|--2--|--4--|--0--||--7--|--2--|--44--22--|--0--|
Eb|-----|-----|-----|-----||-----|-----|----------|-----|

    SOLO
eb|--------------------|-------------|--------------------|--------------|
Bb|------12-----12-10--|--9-10-9-----|------12-----12-10--|--9-10-12-----|
Gb|--8h9----8h9--------|---------11--|--8h9----8h9--------|----------11--|
Db|--------------------|-------------|--------------------|--------------|
Ab|--------------------|-------------|--------------------|--------------|
Eb|--------------------|-------------|--------------------|--------------|

eb|----------|
Bb|------12--|
Gb|--8h9-----|
Db|----------| x10
Ab|----------|
Eb|----------|

   SOLO Chords for other guitar:|A B|E C#| x2, |A|A|B|B  
                                                      1 2(continue to bridge)
   BRIDGE
  (play chords as if no tuning change and use power chords)

     3     +    1
     C#         E
And don't you know
   B         C#
My heart is open
         B              A
Oh, it's putting up the fight
         B            E
And I've got this feeling
       C#             A      
That everything's alright

Don't you see
           B
I'm not the only one for you

But you're the only one for me


ORDER:
Intro
Verse x2
Pre-Chorus
Chorus
Verse x2
Pre-Chorus
Chorus
Solo
Bridge
Chorus (first half played twice)
       (last chord progression played twice ending on E)


| /  slide up
| \  slide down
| h  hammer-on
| p  pull-off
| ~  vibrato
| +  harmonic
| x  Mute note
===============================================================================





Comments


Popular Secondhand Serenade tabs & chords
A Twist In My Story 7 Chords
Awake Chords
Awake 2 Chords
Fix You Chords
Fix You 5 Chords
Like A Knife 1 Tabs
Animal Ukulele
Distance Ukulele
Goodbye Ukulele
Take Me With You Ukulele


Song lyrics



↑ Back to top | Tablatures and chords are parodies/interpretations of the original songs. You may use it for private study, scholarship, research or language learning purposes only
© 2014 AZChords.com Contact us | Privacy policy | DMCA | Add/correct tabs | Request tabs | Top 50 tabs