» » »

Fix You Tabs (ver.2)

Artists:  A B C D E F G H I J K L M N O P Q R S T U V W X Y Z # 

Fix You Tabs (ver.2)

Secondhand Serenade
Rating:
5/5 (1 vote)

Hard to play? Try these video lessons and learn fast.
                Hi there! I love Secondhand Serenade and just love
their version of Coldplay's terrific song!   I was quite
surprised there wasn't a tab version like this up on
plays along exactly to Secondhand Serenade's version,
as far as when to pick and when to strum.  But it will
also play nicely along to Coldplay's :)
  
*I sometimes pick through the chorus parts
and will add that picking pattern if
requested:)

   *************Have fun & Rate!***************
                    Thanks:)

**Not sure if the G/B is named correctly.  Couldn't 
find it on a chord chart.  Maybe C/G?  Anyone know?
Thanks!
(Also, the strumming parts are just regular G's and 
 Em's)


Standard Tuning[EADGBe]
w/Capo on 3

Intro-

        C            Em7             Am            G/B
e|---------------------------------------------------------------|
B|-------1-------------1--------------1-------------1------------|
G|-----0---0---------0---0----------2---2---------0---0----------|
D|---------------------------------------------------------------|  x2
A|---3-------------2--------------0------------------------------|
E|----------------------------------------------3----------------|


(This picking pattern continues throughout the entire 1st & 2nd verses)

        C            Em7             Am            G/B
e|---------------------------------------------------------------|
B|-------1-------------1--------------1-------------1------------|
G|-----0---0---------0---0----------2---2---------0---0----------|
D|---------------------------------------------------------------|  x4
A|---3-------------2--------------0------------------------------|
E|----------------------------------------------3----------------|

         C                    Em7        Am   G/B          
When you try your best but you don't succeed
         C                     Em7            Am   G/B
When you get what you want but not what you need
         C                 Em7          Am     G/B
When you feel so tired but you can't sleep
           C  Em7  Am   G/B
Stuck in reverse


        C            Em7             Am            G/B
e|---------------------------------------------------------------|
B|-------1-------------1--------------1-------------1------------|
G|-----0---0---------0---0----------2---2---------0---0----------|
D|---------------------------------------------------------------|  x4
A|---3-------------2--------------0------------------------------|
E|----------------------------------------------3----------------|

        C                    Em7         Am    G/B
And the tears come streaming down your face
         C                  Em7        Am     G/B
When you lose something you can't replace
         C                   Em7        Am    G/B  
When you love someone but it goes to waste
            C  Em7 Am   G/B  
Could it be worse?


*Strum*
F            G         F
 Lights will guide you home
      G         F  
And ignite your bones
           G -once          
And I will try 
      *Pick* C  Em7  Am   G/B        
To fix you


C  Em7  Am   G/B


*strum*
    C             Em      Am  G
And high above or down below..
            C               Em       Am   G
When you're too in love too let it go...
           C                Em      Am   G
But if you never try you'll never know
                 C Em  Am G
Just What you're worth



F            G         F
 Lights will guide you home
      G         F  
And ignite your bones
           G   -stop       
And I will try 
          C   F   C  G
To fix you


Am  F  C  G



C             F               C                       
  Tears stream, Down your face,
                        G                 Am
When you lose something you cannot replace
            F                     C    G
Tears stream, down your face, And I.... 
C             F               C                       
  Tears stream, Down your face,
                        G                 Am
When you lose something you cannot replace
            F                     C    G
Tears stream, down your face, And I.... 
C            F                C                      
 Tears stream, down your face,
                     G                   Am
I promise you I will learn from my mistakes 
            F                     C    G  F
Tears stream, down your face, And I.... 


*strum each chord once*
F      F    G          F
Lights will guide you home
F   F G          F  
And ignite your bones
F F    G          
I will try 
          C  
To fix you





Have fun and RATE!
cristy♥twilight
            
Hard to play? Try these video lessons and learn fast. | Correct




comments powered by Disqus
↑ Back to top | Tablatures and chords are parodies/interpretations of the original songs. You may use it for private study, scholarship, research or language learning purposes only