» » »

Sebadoh, Together Or Alone Bass tabs (ver.1)

Artists:  A B C D E F G H I J K L M N O P Q R S T U V W X Y Z # 

Together Or Alone Bass tabs (ver.1)

Sebadoh Tabs
 Rating:
4/5 (4 votes)
Together Or Alone lessons Tabs too difficult? Try these video lessons and learn fast
1
                * : hold that note
~ : bend that note
h,p : hammer on, pull off
/,\ : slide up, slide down
 

G:------------------------|------------------------|
D:------------------------|------------------------|
A:-6-8-9------------------|-6-8-9------------------|
E:-------9*-9-6*-7-9-11-9-|-------9*-9-6*-7-9-11-9-|
 
G:------------------------|------------------------|
D:------------------------|------------------------|
A:-6-8-9------------------|-6-8-9------------------|
E:-------9*-9-6*-7-9-11-9-|-------9*-9-6*-7-9-11-9-|
 
G:---------------|
D:---------------|
A:---------------|
E:-9-6*-7-9-11-9-|
 
:40
G:------------------------------------------------|
D:------------------------------------------------|
A:-6666666666666666-------------------------------|
E:-----------------99999999/13-13-13\11-11-11\999-|
 
G:------------------------------------------------|
D:------------------------------------------------|
A:-6666666666666666-------------------------------|
E:-----------------99999999/13-13-13\11-11-11\999-|
 
:57
G:-----------------------------------------------------------------|
D:-----------------------------------------------------------------|
A:-----------------------------------------------------------------|
E:-55555555\22222222/13-13-13-13-13-13-13-13-13-13-13\11-11-11\999-|
 
G:----------------------------------------------------------------------|
D:----------------------------------------------------------------------|
A:----------------------------------------------------------------------|
E:-55555555\22222222/13-13-13-13-13-13-13-13-13-13-13-13-13-13-13-13-13-|
 
1:13
G:------------------------------------------------|
D:------------------------------------------------|
A:-6666666666666666-------------------------------|
E:-----------------99999999/13-13-13\11-11-11\999-|
 
G:------------------------------------------------|
D:------------------------------------------------|
A:-6666666666666666-------------------------------|
E:-----------------99999999/13-13-13\11-11-11\999-|
 
1:30
G:-----------------------------------------------------------------|
D:-----------------------------------------------------------------|
A:-----------------------------------------------------------------|
E:-55555555\22222222/13-13-13-13-13-13-13-13-13-13-13\11-11-11\999-|
 
G:----------------------------------------------------------------------|
D:----------------------------------------------------------------------|
A:----------------------------------------------------------------------|
E:-55555555\22222222/13-13-13-13-13-13-13-13-13-13-13-13-13-13-13-13-13-|
 
1:46
 
G:--------------------------------------------------|
D:--------------------------------------------------|
A:--------------------------------------------------|
E:-7*-13-13-13-13-13-13-13-13-13-13-13\11-11-11\999-|
 
G:----------------------------|----------------------------|
D:----------------------------|----------------------------|
A:----------------------------|----------------------------|
E:-7*-13-13-13-13-13-13-13-13-|-77777777-99999999-77777777-|
 
2:06
G:-------------------------------------------------|
D:-------------------------------------------------|
A:-6666666666666666--------------------------------|
E:------------------99999999/13-13-13\11-11-11\999-|
 
G:-------------------------------------------------|
D:-------------------------------------------------|
A:-6666666666666666--------------------------------|
E:------------------99999999/13-13-13\11-11-11\999-|
 
G:-------------------------------------------------|
D:-------------------------------------------------|
A:-6666666666666666--------------------------------|
E:------------------99999999/13-13-13\11-11-11\999-|
 
2:32
G:-----------------------------------------------------------------|
D:-----------------------------------------------------------------|
A:-----------------------------------------------------------------|
E:-55555555\22222222/13-13-13-13-13-13-13-13-13-13-13\11-11-11\999-|
 
G:----------------------------------------------------------------------|
D:----------------------------------------------------------------------|
A:----------------------------------------------------------------------|
E:-55555555\22222222/13-13-13-13-13-13-13-13-13-13-13-13-13-13-13-13-13-|
 
2:48
G:--------------------------------------------------|
D:--------------------------------------------------|
A:--------------------------------------------------|
E:-7*-13-13-13-13-13-13-13-13-13-13-13\11-11-11\999-|
 
G:----------------------------|-------------------|
D:----------------------------|-------------------|
A:----------------------------|-------------------|
E:-7*-13-13-13-13-13-13-13-13-|-77777777-99999999-|
 
G:---------------------------------------------|
D:---------------------------------------------|
A:----------------------------6666666666666666-|
E:-77777777-99999999-77777777------------------|
 
3:18
G:------------------------|------------------------|
D:------------------------|------------------------|
A:-6-8-9------------------|-6-8-9------------------|
E:-------9*-9-6*-7-9-11-9-|-------9*-9-6*-7-9-11-9-|
 
G:---------------------------|------------------------|
D:---------------------------|------------------------|
A:-6-8-9---888---------------|-6-8-9------------------|
E:-------9-----9-6*-7-9-11-9-|-------9*-9-6*-7-9-11-9-|
 
G:---------------|-----|
D:---------------|-----|
A:---------------|-----|
E:-9-6*-7-9-11-9-|-11*-|
            
Submit corrections

comments powered by Disqus
↑ Back to top | Sebadoh Bass for Together Or Alone. Lyrics for acoustic guitar and electric guitar. 1 Tablatures and chords are parodies/interpretations of the original songs. You may use it for private study, scholarship, research or language learning purposes only