» » »

Sebadoh, Spoiled Tabs (ver.1)

Artists:  A B C D E F G H I J K L M N O P Q R S T U V W X Y Z # 

Spoiled Tabs (ver.1)

Sebadoh Tabs
 Rating:
4/5 (4 votes)
Spoiled lessons Tabs too difficult? Try these video lessons and learn fast
1
                
Tuning: E A D F# A c#
Compass: 4/4

I’ve put the words that introduces every part of the song below the riffs

Intro:
c# |0-0-0-0-0-------------------------------------------------------|
A  |4-4-4-4-4-0-0-0-5-5-5-5-5-5-5---0-0-0-0-0-0-0-0-0-0-0-0-0-0-0---|
F# |3-3-3-3-3-3-3-0-3-3-3-3-3-0-0-3-0-0-0-0-0-0-0-0-0-0-0-0-0-0-0-0-|
D  |2-2-2-2-2-2-2-0-0-0-0-0-0-0-0-0-0-0-0-0-0-0-0-0-0-0-0-0-0-0-0-0-|
A  |4-4-4-4-4-4-4-0---------------4-2-2-2-2-2-2-2-2-2-2-2-2-2-2-2-0-|
E  |----------------------------------------------------------------|

c# |0-0-0-0-0-------------------------------------------------------|
A  |4-4-4-4-4-0-0-0-5-5-5-5-5-5-5---0-0-0-0-0-0-0-0-0-0-0-0-0-0-0---|
F# |3-3-3-3-3-3-3-0-3-3-3-3-3-0-0-3-0-0-0-0-0-0-0-0-0-0-0-0-0-0-0-0-|
D  |2-2-2-2-2-2-2-0-0-0-0-0-0-0-0-0-0-0-0-0-0-0-0-0-7-7-7-7-7-7-7-0-|
A  |4-4-4-4-4-4-4-0---------------4-2-2-2-2-2-2-2-2/9-9-9-9-9-9-9-0-|
E  |----------------------------------------------------------------|


Verse 1:

	“Spoiled children soon to fall freedom is the lie we live”
c# |0-0-0-0-0-------------------------------------------------------|
A  |4-4-4-4-4-0-0-0-5-5-5-5-5-5-5---0-0-0-0-0-0-0-0-0-0-0-0-0-0-0---|
F# |3-3-3-3-3-3-3-0-3-3-3-3-3-0-0-3-0-0-0-0-0-0-0-0-0-0-0-0-0-0-0-0-|x3
D  |2-2-2-2-2-2-2-0-0-0-0-0-0-0-0-0-0-0-0-0-0-0-0-0-0-0-0-0-0-0-0-0-|
A  |4-4-4-4-4-4-4-0---------------4-2-2-2-2-2-2-2-2-2-2-2-2-2-2-2-0-|
E  |----------------------------------------------------------------|

	“No one cries for help          waiting for the fire”
c# |0-0-0-0-0-------------------------------------------------------|
A  |4-4-4-4-4-0-0-0-5-5-5-5-5-5-5---0-0-0-0-0-0-0-0-0-0-0-0-0-0-0-0-|
F# |3-3-3-3-3-3-3-0-3-3-3-3-3-0-0-3-0-0-0-0-0-0-0-0-0-0-0-0-0-0-0-0-|
D  |2-2-2-2-2-2-2-0-0-0-0-0-0-0-0-0-0-0-0-0-0-0-0-0-7-7-7-7-7-7-7-7-|
A  |4-4-4-4-4-4-4-0---------------4-2-2-2-2-2-2-2-2/9-9-9-9-9-9-9-9-|
E  |----------------------------------------------------------------|

c# |----------------|
A  |0-0-0-0-0-0-0-0-|
F# |0-0-0-0-0-0-0-0-|
D  |7-7-7-7-7-7-7-0-|
A  |9-9-9-9-9-9-9-0-|
E  |----------------|

Chorus:

	“When all our toys are burning”
c# |------------------------------------------------|
A  |5-5-5-5-5-5-5-0-----------------0-0-0-0-0-0-0-0-|
F# |3-3-3-3-3-3-3-0-0-0-0-0-0-0-0-0-0-0-0-0-0-0-0-0-|
D  |0-0-0-0-0-0-0-0-2-2-2-2-2-2-2-2-7-7-7-7-7-7-7-7-|
A  |----------------2-2-2-2-2-2-2-2-9-9-9-9-9-9-9-9-|
E  |----------------0-0-0-0-0-0-0-0-----------------|

	“Obvious empty urges must be satisfied      acted outside”
c# |----------------------------------------------------------------|
A  |5-5-5-5-5-5-5-0-----------------0-0-0-0-0-0-0-0-0-0-0-0-0-0-0-0-|
F# |3-3-3-3-3-3-3-0-0-0-0-0-0-0-0-0-0-0-0-0-0-0-0-0-0-0-0-0-0-0-0-0-|
D  |0-0-0-0-0-0-0-0-2-2-2-2-2-2-2-2-7-7-7-7-7-7-7-7-7-7-7-7-7-7-7-7-|x2
A  |----------------2-2-2-2-2-2-2-2-9-9-9-9-9-9-9-9-9-9-9-9-9-9-9-9-|
E  |----------------0-0-0-0-0-0-0-0---------------------------------|

Verse 2:

	“Givin up i'm blown away he said all i had to say”
c# |0-0-0-0-0-------------------------------------------------------|
A  |4-4-4-4-4-0-0-0-5-5-5-5-5-5-5---0-0-0-0-0-0-0-0-0-0-0-0-0-0-0---|
F# |3-3-3-3-3-3-3-0-3-3-3-3-3-0-0-3-0-0-0-0-0-0-0-0-0-0-0-0-0-0-0-0-|x2
D  |2-2-2-2-2-2-2-0-0-0-0-0-0-0-0-0-0-0-0-0-0-0-0-0-0-0-0-0-0-0-0-0-|
A  |4-4-4-4-4-4-4-0---------------4-2-2-2-2-2-2-2-2-2-2-2-2-2-2-2-0-|
E  |----------------------------------------------------------------|

	“Nothing in these words      sorry force of habit”
	“It could be way over my head  i'm helpless to describe it”
c# |0-0-0-0-0-0-0-0-0-0-0-0-0-0-0-0---------------------------------|
A  |4-4-4-4-4-4-4-4-4-4-4-4-4-4-4-4-5-5-5-5-5-5-5-5-5-5-5-5-5-5-5-5-|
F# |3-3-3-3-3-3-3-3-3-3-3-3-3-3-3-3-3-3-3-3-3-3-3-3-3-3-3-3-3-3-3-3-|
D  |2-2-2-2-2-2-2-2-2-2-2-2-2-2-2-2-0-0-0-0-0-0-0-0-0-0-0-0-0-0-0-0-|x5
A  |4-4-4-4-4-4-4-4-4-4-4-4-4-4-4-4---------------------------------|
E  |----------------------------------------------------------------|


Bridge:

   “dumb and cruel cut before it's grown lies so forced in bored control”
c# |0-0-0-0-0-0-0-0-0-0-0-0-0-0-0-0---------------------------------|
A  |4-4-4-4-4-4-4-4-4-4-4-4-4-4-4-4-5-5-5-5-5-5-5-5-5-5-5-5-5-5-5-5-|
F# |3-3-3-3-3-3-3-3-3-3-3-3-3-3-3-3-3-3-3-3-3-3-3-3-3-3-3-3-3-3-3-3-|
D  |2-2-2-2-2-2-2-2-2-2-2-2-2-2-2-2-0-0-0-0-0-0-0-0-0-0-0-0-0-0-0-0-|
A  |4-4-4-4-4-4-4-4-4-4-4-4-4-4-4-4---------------------------------|
E  |----------------------------------------------------------------|

	“it learned all that it cares to know”
c# |---------------------------------0-0-0-0-0-0-0-0-0-0-0-0-0-0-0-0-|
A  |-0-0-0-0-0-0-0-0-0-0-0-0-0-0-0-0-4-4-4-4-4-4-4-4-4-4-4-4-4-4-4-4-|
F# |-0-0-0-0-0-0-0-0-0-0-0-0-0-0-0-0-3-3-3-3-3-3-3-3-3-3-3-3-3-3-3-3-| 
D  |-0-0-0-0-0-0-0-0-0-0-0-0-0-0-0-0-2-2-2-2-2-2-2-2-2-2-2-2-2-2-2-2-|
A  |-2-2-2-2-2-2-2-2-2-2-2-2-2-2-2-0-4-4-4-4-4-4-4-4-4-4-4-4-4-4-4-4-|
E  |-----------------------------------------------------------------|


Outro:

c# |----------------------------------------------------------------|
A  |5-5-5-5-5-5-5---0-0-0-0-0-0-0-0-0-0-0-0-0-0-0-0-0-0-0-0-0-0-0-0-|
F# |3-3-3-3-3-3-4-0-0-0-0-0-0-0-0-0-0-0-0-0-0-0-0-0-0-0-0-0-0-0-0-0-|
D  |0-0-0-0-0-0-0-0-0-0-0-0-0-0-0-0-7-7-7-7-7-7-7-7-7-7-7-7-7-7-7-7-|
A  |----------4-4-0-2-2-2-2-2-2-2-2/9-9-9-9-9-9-9-9-9-9-9-9-9-9-9-9-|
E  |----------------------------------------------------------------|
            
Submit corrections

comments powered by Disqus
↑ Back to top | Sebadoh Tabs for Spoiled. Lyrics for acoustic guitar and electric guitar. 1 Tablatures and chords are parodies/interpretations of the original songs. You may use it for private study, scholarship, research or language learning purposes only