>
 >
Soul And Fire 1

Soul And Fire 1 Guitar Tabs

Sebadoh - Soul And Fire 1 chords, tabs, tablatures, lyrics

Guitar lessons | Add/correct | Request | Top 50 tabs Artists:  A B C D E F G H I J K L M N O P Q R S T U V W X Y Z 0-9

Soul And Fire 1 Guitar Tabs – Sebadoh

CD, Sheet music, Poster

Do you like Soul And Fire 1? Share with your friends now
ChordsTabsTabs v2Ukulele
Joel Nicholas, Leicester, UK.

This is what i think is a better version than any other i've found. it
isn't perfect but i really don't like those E7's in the other versions.

       A    AM7     A AM7   E(?)              E             A     
e------5-----4------5--4-----0----------------4-------------5-------
 ------5-----5------5--5-----5----------------5-------------5-------
 ------6-----6------6--6-----4----------------4-------------6-------
 ------7-----7------7--7-----6----------------6-------------7--------
 ------x-----x------x--x-----7----------------7-------------x-------
E------x-----x------x--x-----x----------------x-------------x-------
  it's all a matter       of soul and fire. infatuation, or true desire.

               AM7        A AM7  E(?)                E
e---------------4---------5--4----0------------------4-------------
 ---------------5---------5--5----5------------------5-------------
 ---------------6---------6--6----4------------------4--------------
 ---------------7---------7--7----6------------------6-------------
 ---------------x---------x--x----7------------------7-------------
E---------------x---------x--x----x------------------x-------------
  the thrill of discovery,      divine intervention, cruel cruel change,
 
      A                 F#m                  D                 
e-----5------------------2-------------------2-----------------------
 -----5------------------2-------------------3-----------------------
 -----6------------------2-------------------2-----------------------
 -----7------------------4-------------------0-----------------------
 -----x------------------4-------------------x-----------------------
E-----x------------------2-------------------x------------------------
  the pain of rejection.   as you walk away,   think of all the joy 

         A      F#m                          D      
e--------5-------2---------------------------2-----------------------
 --------5-------2---------------------------3-----------------------
 --------6-------2---------------------------2-------------------------
 --------7-------4---------------------------0-----------------------
 --------7-------4---------------------------x-----------------------
E--------5-------2---------------------------x-----------------------
   we've shared.   if you decide you need me,   i'll be wondering if i

  A             E                          E                   D
e-5-------------0--------------------------4-------------------5-----
 -5-------------0--------------------------5-------------------7----
 -6-------------1--------------------------4-------------------7----
 -7-------------2--------------------------6-------------------7----
 -7-------------2--------------------------7-------------------5-----
E-5-------------0--------------------------x-------------------x-----
  care. i'm not there to soothe your soul, friend to tender. i think our

          E            A
e---------7------------5---------------------------------------------
 ---------9------------5----------------------------------------------
 ---------9------------6---------------------------------------------
 ---------9------------7---------------------------------------------
 ---------7------------x---------------------------------------------
E---------x------------x---------------------------------------------
  love is coming to an end.

etc. etc.





Comments


Popular Sebadoh tabs & chords
Bouquet For A Siren Chords
Skull Chords
Rebound 1 Tabs
Sacred Attention Tabs
Soul And Fire Tabs
Spoiled Tabs
Together Or Alone 1 Tabs
Beauty Of The Ride Ukulele
Think Ukulele
Together Or Alone Ukulele


Song lyrics



↑ Back to top | Tablatures and chords are parodies/interpretations of the original songs. You may use it for private study, scholarship, research or language learning purposes only
© 2014 AZChords.com Contact us | Privacy policy | DMCA | Add/correct tabs | Request tabs | Top 50 tabs