» » »

Sebadoh, Skull Chords (ver.1)

Artists:  A B C D E F G H I J K L M N O P Q R S T U V W X Y Z # 

Skull Chords (ver.1)

Sebadoh Tabs
 Rating:
4/5 (7 votes)
Skull lessons Tabs too difficult? Try these video lessons and learn fast
                SKULL
By Sebadoh

Tuning: 1/2 step down.

Opening chords:

     D    G
d#|--0----0------|
A#|--3----3------|
A#|--2----4------|
C#|--4----5------|
G#|--5----5------|
D#|--------------|

During "Gently take my skull for a ride":

    D    C     G
d#|-2----0-----3-----|
A#|-3----3-----3-----|
A#|-2----0-----0-----|
C#|-0----x-----0-----|
G#|------3-----x-----|
D#|------------3-----|

During "we can never ever...":

     D     C     D
d#|--2-----0-----2-----|
A#|--3-----3-----3-----|
A#|--2-----0-----2-----|
C#|--0-----x-----0-----|
G#|--------3-----------|
D#|--------------------|


I didn't find it necessary to include a legend, but if you
were wondering, "x" is a dead note (ie. don't play that string).
Cheers to Lou and Sebadoh!

====================================================================
            
Submit corrections

comments powered by Disqus
↑ Back to top | Sebadoh Chords for Skull. Lyrics for acoustic guitar and electric guitar. Tablatures and chords are parodies/interpretations of the original songs. You may use it for private study, scholarship, research or language learning purposes only